  0
SECTION
  2
HEADER
  9
$ACADVER
  1
AC1015
  9
$ACADMAINTVER
 70
     6
  9
$DWGCODEPAGE
  3
ANSI_1254
  9
$INSBASE
 10
0.0
 20
0.0
 30
0.0
  9
$EXTMIN
 10
0.0
 20
0.0
 30
0.0
  9
$EXTMAX
 10
279.4
 20
215.9
 30
0.0
  9
$LIMMIN
 10
0.0
 20
0.0
  9
$LIMMAX
 10
279.4
 20
215.9
  9
$ORTHOMODE
 70
     0
  9
$REGENMODE
 70
     1
  9
$FILLMODE
 70
     1
  9
$QTEXTMODE
 70
     0
  9
$MIRRTEXT
 70
     1
  9
$LTSCALE
 40
1.0
  9
$ATTMODE
 70
     1
  9
$TEXTSIZE
 40
3.5
  9
$TRACEWID
 40
1.0
  9
$TEXTSTYLE
  7
Standard
  9
$CLAYER
  8
0
  9
$CELTYPE
  6
ByLayer
  9
$CECOLOR
 62
   256
  9
$CELTSCALE
 40
1.0
  9
$DISPSILH
 70
     0
  9
$DIMSCALE
 40
1.0
  9
$DIMASZ
 40
3.5
  9
$DIMEXO
 40
1.0
  9
$DIMDLI
 40
3.75
  9
$DIMRND
 40
0.0
  9
$DIMDLE
 40
0.0
  9
$DIMEXE
 40
1.0
  9
$DIMTP
 40
0.0
  9
$DIMTM
 40
0.0
  9
$DIMTXT
 40
3.5
  9
$DIMCEN
 40
2.5
  9
$DIMTSZ
 40
0.0
  9
$DIMTOL
 70
     0
  9
$DIMLIM
 70
     0
  9
$DIMTIH
 70
     1
  9
$DIMTOH
 70
     1
  9
$DIMSE1
 70
     0
  9
$DIMSE2
 70
     0
  9
$DIMTAD
 70
     1
  9
$DIMZIN
 70
     0
  9
$DIMBLK
  1

  9
$DIMASO
 70
     1
  9
$DIMSHO
 70
     1
  9
$DIMPOST
  1

  9
$DIMAPOST
  1

  9
$DIMALT
 70
     0
  9
$DIMALTD
 70
     3
  9
$DIMALTF
 40
0.0393700787
  9
$DIMLFAC
 40
1.0
  9
$DIMTOFL
 70
     1
  9
$DIMTVP
 40
0.0
  9
$DIMTIX
 70
     0
  9
$DIMSOXD
 70
     0
  9
$DIMSAH
 70
     0
  9
$DIMBLK1
  1

  9
$DIMBLK2
  1

  9
$DIMSTYLE
  2
ISO-25
  9
$DIMCLRD
 70
     0
  9
$DIMCLRE
 70
     0
  9
$DIMCLRT
 70
     0
  9
$DIMTFAC
 40
1.0
  9
$DIMGAP
 40
1.524
  9
$DIMJUST
 70
     0
  9
$DIMSD1
 70
     0
  9
$DIMSD2
 70
     0
  9
$DIMTOLJ
 70
     0
  9
$DIMTZIN
 70
     0
  9
$DIMALTZ
 70
     0
  9
$DIMALTTZ
 70
     0
  9
$DIMUPT
 70
     0
  9
$DIMDEC
 70
     2
  9
$DIMTDEC
 70
     2
  9
$DIMALTU
 70
     2
  9
$DIMALTTD
 70
     3
  9
$DIMTXSTY
  7
Standard
  9
$DIMAUNIT
 70
     0
  9
$DIMADEC
 70
     2
  9
$DIMALTRND
 40
0.0
  9
$DIMAZIN
 70
     0
  9
$DIMDSEP
 70
    44
  9
$DIMATFIT
 70
     3
  9
$DIMFRAC
 70
     0
  9
$DIMLDRBLK
  1

  9
$DIMLUNIT
 70
     2
  9
$DIMLWD
 70
    -2
  9
$DIMLWE
 70
    -2
  9
$DIMTMOVE
 70
     0
  9
$LUNITS
 70
     2
  9
$LUPREC
 70
     2
  9
$SKETCHINC
 40
1.0
  9
$FILLETRAD
 40
10.0
  9
$AUNITS
 70
     0
  9
$AUPREC
 70
     2
  9
$MENU
  1
.
  9
$ELEVATION
 40
0.0
  9
$PELEVATION
 40
0.0
  9
$THICKNESS
 40
0.0
  9
$LIMCHECK
 70
     0
  9
$CHAMFERA
 40
0.0
  9
$CHAMFERB
 40
0.0
  9
$CHAMFERC
 40
0.0
  9
$CHAMFERD
 40
0.0
  9
$SKPOLY
 70
     0
  9
$TDCREATE
 40
2460682.519644896
  9
$TDUCREATE
 40
2460682.394644896
  9
$TDUPDATE
 40
2460682.519645081
  9
$TDUUPDATE
 40
2460682.394645081
  9
$TDINDWG
 40
0.0000000116
  9
$TDUSRTIMER
 40
0.0000000116
  9
$USRTIMER
 70
     1
  9
$ANGBASE
 50
0.0
  9
$ANGDIR
 70
     0
  9
$PDMODE
 70
     0
  9
$PDSIZE
 40
-1.0
  9
$PLINEWID
 40
0.0
  9
$SPLFRAME
 70
     0
  9
$SPLINETYPE
 70
     6
  9
$SPLINESEGS
 70
     8
  9
$HANDSEED
  5
BF
  9
$SURFTAB1
 70
     6
  9
$SURFTAB2
 70
     6
  9
$SURFTYPE
 70
     6
  9
$SURFU
 70
     6
  9
$SURFV
 70
     6
  9
$UCSBASE
  2

  9
$UCSNAME
  2

  9
$UCSORG
 10
0.0
 20
0.0
 30
0.0
  9
$UCSXDIR
 10
1.0
 20
0.0
 30
0.0
  9
$UCSYDIR
 10
0.0
 20
1.0
 30
0.0
  9
$UCSORTHOREF
  2

  9
$UCSORTHOVIEW
 70
     0
  9
$UCSORGTOP
 10
0.0
 20
0.0
 30
0.0
  9
$UCSORGBOTTOM
 10
0.0
 20
0.0
 30
0.0
  9
$UCSORGLEFT
 10
0.0
 20
0.0
 30
0.0
  9
$UCSORGRIGHT
 10
0.0
 20
0.0
 30
0.0
  9
$UCSORGFRONT
 10
0.0
 20
0.0
 30
0.0
  9
$UCSORGBACK
 10
0.0
 20
0.0
 30
0.0
  9
$PUCSBASE
  2

  9
$PUCSNAME
  2

  9
$PUCSORG
 10
0.0
 20
0.0
 30
0.0
  9
$PUCSXDIR
 10
1.0
 20
0.0
 30
0.0
  9
$PUCSYDIR
 10
0.0
 20
1.0
 30
0.0
  9
$PUCSORTHOREF
  2

  9
$PUCSORTHOVIEW
 70
     0
  9
$PUCSORGTOP
 10
0.0
 20
0.0
 30
0.0
  9
$PUCSORGBOTTOM
 10
0.0
 20
0.0
 30
0.0
  9
$PUCSORGLEFT
 10
0.0
 20
0.0
 30
0.0
  9
$PUCSORGRIGHT
 10
0.0
 20
0.0
 30
0.0
  9
$PUCSORGFRONT
 10
0.0
 20
0.0
 30
0.0
  9
$PUCSORGBACK
 10
0.0
 20
0.0
 30
0.0
  9
$USERI1
 70
     0
  9
$USERI2
 70
     0
  9
$USERI3
 70
     0
  9
$USERI4
 70
     0
  9
$USERI5
 70
     0
  9
$USERR1
 40
0.0
  9
$USERR2
 40
0.0
  9
$USERR3
 40
0.0
  9
$USERR4
 40
0.0
  9
$USERR5
 40
0.0
  9
$WORLDVIEW
 70
     1
  9
$SHADEDGE
 70
     3
  9
$SHADEDIF
 70
    70
  9
$TILEMODE
 70
     1
  9
$MAXACTVP
 70
    64
  9
$PINSBASE
 10
0.0
 20
0.0
 30
0.0
  9
$PLIMCHECK
 70
     0
  9
$PEXTMIN
 10
1.0000000000E+20
 20
1.0000000000E+20
 30
1.0000000000E+20
  9
$PEXTMAX
 10
-1.0000000000E+20
 20
-1.0000000000E+20
 30
-1.0000000000E+20
  9
$PLIMMIN
 10
0.0
 20
0.0
  9
$PLIMMAX
 10
420.0
 20
297.0
  9
$UNITMODE
 70
     0
  9
$VISRETAIN
 70
     1
  9
$PLINEGEN
 70
     0
  9
$PSLTSCALE
 70
     1
  9
$TREEDEPTH
 70
  3020
  9
$CMLSTYLE
  2
Standard
  9
$CMLJUST
 70
     0
  9
$CMLSCALE
 40
20.0
  9
$PROXYGRAPHICS
 70
     1
  9
$MEASUREMENT
 70
     1
  9
$CELWEIGHT
370
    -1
  9
$ENDCAPS
280
     0
  9
$JOINSTYLE
280
     0
  9
$LWDISPLAY
290
     1
  9
$INSUNITS
 70
     4
  9
$HYPERLINKBASE
  1

  9
$STYLESHEET
  1

  9
$XEDIT
290
     1
  9
$CEPSNTYPE
380
     0
  9
$PSTYLEMODE
290
     1
  9
$FINGERPRINTGUID
  2
{0882d7ae-2b24-46ff-8da6-9b6b77b5efbc}
  9
$VERSIONGUID
  2
{FAEB1C32-E019-11D5-929B-00C0DF256EC4}
  9
$EXTNAMES
290
     1
  9
$PSVPSCALE
 40
0.0
  9
$OLESTARTUP
290
     0
  0
ENDSEC
  0
SECTION
  2
CLASSES
  0
CLASS
  1
ACDBDICTIONARYWDFLT
  2
AcDbDictionaryWithDefault
  3
ObjectDBX Classes
 90
        0
280
     0
281
     0
  0
CLASS
  1
VISUALSTYLE
  2
AcDbVisualStyle
  3
ObjectDBX Classes
 90
     4095
280
     0
281
     0
  0
CLASS
  1
MATERIAL
  2
AcDbMaterial
  3
ObjectDBX Classes
 90
     1153
280
     0
281
     0
  0
CLASS
  1
SCALE
  2
AcDbScale
  3
ObjectDBX Classes
 90
     1153
280
     0
281
     0
  0
CLASS
  1
TABLESTYLE
  2
AcDbTableStyle
  3
ObjectDBX Classes
 90
     4095
280
     0
281
     0
  0
CLASS
  1
MLEADERSTYLE
  2
AcDbMLeaderStyle
  3
ACDB_MLEADERSTYLE_CLASS
 90
     4095
280
     0
281
     0
  0
CLASS
  1
SUN
  2
AcDbSun
  3
SCENEOE
 90
     1153
280
     0
281
     0
  0
CLASS
  1
ACDBPLACEHOLDER
  2
AcDbPlaceHolder
  3
ObjectDBX Classes
 90
        0
280
     0
281
     0
  0
CLASS
  1
LAYOUT
  2
AcDbLayout
  3
ObjectDBX Classes
 90
        0
280
     0
281
     0
  0
ENDSEC
  0
SECTION
  2
TABLES
  0
TABLE
  2
VPORT
  5
8
330
0
100
AcDbSymbolTable
 70
     1
  0
VPORT
  5
29
330
8
100
AcDbSymbolTableRecord
100
AcDbViewportTableRecord
  2
*Active
 70
     0
 10
0.0
 20
0.0
 11
1.0
 21
1.0
 12
139.7
 22
107.95
 13
0.0
 23
0.0
 14
10.0
 24
10.0
 15
10.0
 25
10.0
 16
0.0
 26
0.0
 36
1.0
 17
0.0
 27
0.0
 37
0.0
 40
215.9
 41
1.2941176471
 42
50.0
 43
0.0
 44
0.0
 50
0.0
 51
0.0
 71
     0
 72
  2000
 73
     1
 74
     3
 75
     0
 76
     0
 77
     0
 78
     0
281
     0
 65
     1
110
0.0
120
0.0
130
0.0
111
1.0
121
0.0
131
0.0
112
0.0
122
1.0
132
0.0
 79
     0
146
0.0
  0
ENDTAB
  0
TABLE
  2
LTYPE
  5
5
330
0
100
AcDbSymbolTable
 70
     6
  0
LTYPE
  5
14
330
5
100
AcDbSymbolTableRecord
100
AcDbLinetypeTableRecord
  2
ByBlock
 70
     0
  3

 72
    65
 73
     0
 40
0.0
  0
LTYPE
  5
15
330
5
100
AcDbSymbolTableRecord
100
AcDbLinetypeTableRecord
  2
ByLayer
 70
     0
  3

 72
    65
 73
     0
 40
0.0
  0
LTYPE
  5
16
330
5
100
AcDbSymbolTableRecord
100
AcDbLinetypeTableRecord
  2
Continuous
 70
     0
  3
Solid line
 72
    65
 73
     0
 40
0.0
  0
LTYPE
  5
6E
330
5
100
AcDbSymbolTableRecord
100
AcDbLinetypeTableRecord
  2
HIDDEN
 70
     0
  3
Hidden __ __ __ __ __ __ __ __ __ __ __ __ __ __
 72
    65
 73
     2
 40
1.905
 49
1.27
 74
     0
 49
-0.635
 74
     0
  0
LTYPE
  5
6F
330
5
100
AcDbSymbolTableRecord
100
AcDbLinetypeTableRecord
  2
PHANTOM
 70
     0
  3
Phantom ______  __  __  ______  __  __  ______
 72
    65
 73
     6
 40
12.7
 49
6.35
 74
     0
 49
-1.27
 74
     0
 49
1.27
 74
     0
 49
-1.27
 74
     0
 49
1.27
 74
     0
 49
-1.27
 74
     0
  0
LTYPE
  5
70
330
5
100
AcDbSymbolTableRecord
100
AcDbLinetypeTableRecord
  2
CENTER
 70
     0
  3
Center ____ _ ____ _ ____ _ ____ _ ____ _ ____
 72
    65
 73
     4
 40
10.16
 49
6.35
 74
     0
 49
-1.27
 74
     0
 49
1.27
 74
     0
 49
-1.27
 74
     0
  0
LTYPE
  5
71
330
5
100
AcDbSymbolTableRecord
100
AcDbLinetypeTableRecord
  2
CENTERX2
 70
     0
  3
Center (2x) ________  __  ________  __  _____
 72
    65
 73
     4
 40
20.32
 49
12.7
 74
     0
 49
-2.54
 74
     0
 49
2.54
 74
     0
 49
-2.54
 74
     0
  0
LTYPE
  5
72
330
5
100
AcDbSymbolTableRecord
100
AcDbLinetypeTableRecord
  2
DOT2
 70
     0
  3
Dot (.5x) ........................................
 72
    65
 73
     2
 40
0.635
 49
0.0
 74
     0
 49
-0.635
 74
     0
  0
ENDTAB
  0
TABLE
  2
LAYER
  5
2
330
0
100
AcDbSymbolTable
 70
    17
  0
LAYER
  5
10
330
2
100
AcDbSymbolTableRecord
100
AcDbLayerTableRecord
  2
0
 70
     0
 62
     7
  6
Continuous
370
    -3
390
F
  0
LAYER
  5
73
330
2
100
AcDbSymbolTableRecord
100
AcDbLayerTableRecord
  2
FORMAT
 70
     0
 62
     7
  6
Continuous
370
    -3
390
F
  0
LAYER
  5
74
330
2
100
AcDbSymbolTableRecord
100
AcDbLayerTableRecord
  2
YARDIMCI_GEOMETRI
 70
     0
 62
    -6
  6
Continuous
290
     0
370
    -3
390
F
  0
LAYER
  5
75
330
2
100
AcDbSymbolTableRecord
100
AcDbLayerTableRecord
  2
SAYFA_CERCEVESI
 70
     0
 62
     7
  6
Continuous
370
    25
390
F
  0
LAYER
  5
76
330
2
100
AcDbSymbolTableRecord
100
AcDbLayerTableRecord
  2
ANTET
 70
     0
 62
     7
  6
Continuous
370
    -3
390
F
  0
LAYER
  5
77
330
2
100
AcDbSymbolTableRecord
100
AcDbLayerTableRecord
  2
OLCU
 70
     0
 62
   150
  6
Continuous
370
    -3
390
F
  0
LAYER
  5
78
330
2
100
AcDbSymbolTableRecord
100
AcDbLayerTableRecord
  2
METIN
 70
     0
 62
    96
  6
Continuous
370
    -3
390
F
  0
LAYER
  5
79
330
2
100
AcDbSymbolTableRecord
100
AcDbLayerTableRecord
  2
BALON
 70
     0
 62
     5
  6
Continuous
370
    -3
390
F
  0
LAYER
  5
7A
330
2
100
AcDbSymbolTableRecord
100
AcDbLayerTableRecord
  2
VURGU
 70
     0
 62
     7
  6
Continuous
370
    -3
390
F
  0
LAYER
  5
7B
330
2
100
AcDbSymbolTableRecord
100
AcDbLayerTableRecord
  2
SILIK
 70
     0
 62
     7
  6
Continuous
370
    -3
390
F
  0
LAYER
  5
7C
330
2
100
AcDbSymbolTableRecord
100
AcDbLayerTableRecord
  2
MODEL
 70
     0
 62
     7
  6
Continuous
370
    -3
390
F
  0
LAYER
  5
7D
330
2
100
AcDbSymbolTableRecord
100
AcDbLayerTableRecord
  2
DETAYLANDıRMA
 70
     0
 62
   190
  6
Continuous
370
    -3
390
F
  0
LAYER
  5
7E
330
2
100
AcDbSymbolTableRecord
100
AcDbLayerTableRecord
  2
TOLERANS
 70
     0
 62
   230
  6
Continuous
370
    -3
390
F
  0
LAYER
  5
7F
330
2
100
AcDbSymbolTableRecord
100
AcDbLayerTableRecord
  2
MERKEZ_CIZGILERI
 70
     0
 62
    30
  6
Continuous
370
    -3
390
F
  0
LAYER
  5
80
330
2
100
AcDbSymbolTableRecord
100
AcDbLayerTableRecord
  2
KESIT-DETAY_CIZGILERI
 70
     0
 62
     7
  6
Continuous
370
    -3
390
F
  0
LAYER
  5
81
330
2
100
AcDbSymbolTableRecord
100
AcDbLayerTableRecord
  2
\U+041E\U+0421\U+0415\U+0412\U+042B\U+0415
 70
     0
 62
     7
  6
Continuous
370
    -3
390
F
  0
LAYER
  5
82
330
2
100
AcDbSymbolTableRecord
100
AcDbLayerTableRecord
  2
\U+0412\U+041E\U+0414\U+042F\U+041D\U+042B\U+0415_\U+0417\U+041D\U+0410\U+041A\U+0418
 70
     0
 62
    11
  6
Continuous
370
    -3
390
F
  0
ENDTAB
  0
TABLE
  2
STYLE
  5
3
330
0
100
AcDbSymbolTable
 70
     1
  0
STYLE
  5
11
330
3
100
AcDbSymbolTableRecord
100
AcDbTextStyleTableRecord
  2
Standard
 70
     0
 40
0.0
 41
1.0
 50
0.0
 71
     0
 42
3.5
  3
txt
  4

  0
ENDTAB
  0
TABLE
  2
VIEW
  5
6
330
0
100
AcDbSymbolTable
 70
     0
  0
ENDTAB
  0
TABLE
  2
UCS
  5
7
330
0
100
AcDbSymbolTable
 70
     0
  0
ENDTAB
  0
TABLE
  2
APPID
  5
9
330
0
100
AcDbSymbolTable
 70
     1
  0
APPID
  5
12
330
9
100
AcDbSymbolTableRecord
100
AcDbRegAppTableRecord
  2
ACAD
 70
     0
  0
ENDTAB
  0
TABLE
  2
DIMSTYLE
  5
A
330
0
100
AcDbSymbolTable
 70
     1
100
AcDbDimStyleTable
  0
DIMSTYLE
105
27
330
A
100
AcDbSymbolTableRecord
100
AcDbDimStyleTableRecord
  2
ISO-25
 70
     0
 41
2.5
 42
0.625
 43
3.75
 44
1.25
 73
     0
 74
     0
 77
     1
 78
     8
140
2.5
141
2.5
143
0.0393700787
147
0.625
171
     3
172
     1
178
     0
271
     2
272
     2
274
     3
278
    44
283
     0
284
     8
340
11
  0
ENDTAB
  0
TABLE
  2
BLOCK_RECORD
  5
1
330
0
100
AcDbSymbolTable
 70
     2
  0
BLOCK_RECORD
  5
1F
330
1
100
AcDbSymbolTableRecord
100
AcDbBlockTableRecord
  2
*Model_Space
340
22
  0
BLOCK_RECORD
  5
1B
330
1
100
AcDbSymbolTableRecord
100
AcDbBlockTableRecord
  2
*Paper_Space
340
1E
  0
BLOCK_RECORD
  5
23
330
1
100
AcDbSymbolTableRecord
100
AcDbBlockTableRecord
  2
*Paper_Space0
340
26
  0
BLOCK_RECORD
  5
99
330
1
100
AcDbSymbolTableRecord
100
AcDbBlockTableRecord
  2
SW_CENTERMARKSYMBOL_0
340
0
102
{BLKREFS
331
A4
102
}
  0
ENDTAB
  0
ENDSEC
  0
SECTION
  2
BLOCKS
  0
BLOCK
  5
20
330
1F
100
AcDbEntity
  8
0
100
AcDbBlockBegin
  2
*Model_Space
 70
     0
 10
0.0
 20
0.0
 30
0.0
  3
*Model_Space
  1

  0
ENDBLK
  5
21
330
1F
100
AcDbEntity
  8
0
100
AcDbBlockEnd
  0
BLOCK
  5
1C
330
1B
100
AcDbEntity
 67
     1
  8
0
100
AcDbBlockBegin
  2
*Paper_Space
 70
     0
 10
0.0
 20
0.0
 30
0.0
  3
*Paper_Space
  1

  0
ENDBLK
  5
1D
330
1B
100
AcDbEntity
 67
     1
  8
0
100
AcDbBlockEnd
  0
BLOCK
  5
24
330
23
100
AcDbEntity
  8
0
100
AcDbBlockBegin
  2
*Paper_Space0
 70
     0
 10
0.0
 20
0.0
 30
0.0
  3
*Paper_Space0
  1

  0
ENDBLK
  5
25
330
23
100
AcDbEntity
  8
0
100
AcDbBlockEnd
  0
BLOCK
  5
9A
330
99
100
AcDbEntity
  8
0
100
AcDbBlockBegin
  2
SW_CENTERMARKSYMBOL_0
 70
     0
 10
0.0
 20
0.0
 30
0.0
  3
SW_CENTERMARKSYMBOL_0
  1

  0
LINE
  5
9C
330
99
100
AcDbEntity
  8
FORMAT
 62
     0
100
AcDbLine
 10
0.0
 20
0.0
 30
0.0
 11
0.0
 21
2.5
 31
0.0
  0
LINE
  5
9D
330
99
100
AcDbEntity
  8
FORMAT
 62
     0
100
AcDbLine
 10
0.0
 20
0.0
 30
0.0
 11
-2.5
 21
0.0
 31
0.0
  0
LINE
  5
9E
330
99
100
AcDbEntity
  8
FORMAT
 62
     0
100
AcDbLine
 10
0.0
 20
0.0
 30
0.0
 11
0.0
 21
-2.5
 31
0.0
  0
LINE
  5
9F
330
99
100
AcDbEntity
  8
FORMAT
 62
     0
100
AcDbLine
 10
0.0
 20
0.0
 30
0.0
 11
2.5
 21
0.0
 31
0.0
  0
LINE
  5
A0
330
99
100
AcDbEntity
  8
FORMAT
 62
     0
100
AcDbLine
 10
0.0
 20
5.0
 30
0.0
 11
0.0
 21
227.5
 31
0.0
  0
LINE
  5
A1
330
99
100
AcDbEntity
  8
FORMAT
 62
     0
100
AcDbLine
 10
-5.0
 20
0.0
 30
0.0
 11
-227.5
 21
0.0
 31
0.0
  0
LINE
  5
A2
330
99
100
AcDbEntity
  8
FORMAT
 62
     0
100
AcDbLine
 10
0.0
 20
-5.0
 30
0.0
 11
0.0
 21
-227.5
 31
0.0
  0
LINE
  5
A3
330
99
100
AcDbEntity
  8
FORMAT
 62
     0
100
AcDbLine
 10
5.0
 20
0.0
 30
0.0
 11
227.5
 21
0.0
 31
0.0
  0
ENDBLK
  5
9B
330
99
100
AcDbEntity
  8
0
100
AcDbBlockEnd
  0
ENDSEC
  0
SECTION
  2
ENTITIES
  0
LINE
  5
83
330
1F
100
AcDbEntity
  8
0
  6
Continuous
 62
     7
370
    25
100
AcDbLine
 10
-732.4668962078
 20
413.5767365098
 30
0.0
 11
-732.4668962078
 21
154.1439336478
 31
0.0
  0
LINE
  5
84
330
1F
100
AcDbEntity
  8
0
  6
Continuous
 62
     7
370
    25
100
AcDbLine
 10
-282.4668962078
 20
154.1439336478
 30
0.0
 11
-282.4668962078
 21
413.5767365098
 31
0.0
  0
LINE
  5
85
330
1F
100
AcDbEntity
  8
0
  6
Continuous
 62
     7
370
    25
100
AcDbLine
 10
-732.4668962078
 20
154.1439336478
 30
0.0
 11
-732.4668962078
 21
-145.4232634902
 31
0.0
  0
LINE
  5
86
330
1F
100
AcDbEntity
  8
0
  6
Continuous
 62
     7
370
    25
100
AcDbLine
 10
-282.4668962078
 20
-145.4232634902
 30
0.0
 11
-282.4668962078
 21
154.1439336478
 31
0.0
  0
LWPOLYLINE
  5
87
330
1F
100
AcDbEntity
  8
0
  6
Continuous
 62
     7
370
    25
100
AcDbPolyline
 90
      160
 70
   128
 43
0.0
 10
-732.4668962078
 20
413.5767365098
 10
-732.2912408123
 20
409.132243481
 10
-731.7645488911
 20
404.6946900005
 10
-730.8876428108
 20
400.2710047812
 10
-729.6618917564
 20
395.8680948825
 10
-728.0892095926
 20
391.4928349256
 10
-726.1720518759
 20
387.1520563595
 10
-723.9134120204
 20
382.8525367946
 10
-721.3168166243
 20
378.6009894204
 10
-718.386319963
 20
374.4040525235
 10
-715.1264976591
 20
370.2682791225
 10
-711.5424395382
 20
366.2001267366
 10
-707.6397416816
 20
362.205947303
 10
-703.4244976888
 20
358.2919772587
 10
-698.9032891628
 20
354.4643278033
 10
-694.0831754341
 20
350.7289753569
 10
-688.971682538
 20
347.0917522292
 10
-683.5767914641
 20
343.5583375121
 10
-677.9069256942
 20
340.1342482134
 10
-671.9709380506
 20
336.824830642
 10
-665.7780968736
 20
333.6352520607
 10
-659.3380715494
 20
330.5704926176
 10
-652.6609174131
 20
327.635337571
 10
-645.7570600482
 20
324.834369817
 10
-638.6372790085
 20
322.1719627342
 10
-631.312690987
 20
319.6522733553
 10
-623.7947324583
 20
317.279235876
 10
-616.0951418222
 20
315.0565555128
 10
-608.2259410756
 20
312.9877027172
 10
-600.1994170412
 20
311.0759077572
 10
-592.0281021835
 20
309.3241556738
 10
-583.7247550407
 20
307.7351816197
 10
-575.3023403037
 20
306.3114665895
 10
-566.7740085733
 20
305.0552335451
 10
-558.1530758272
 20
303.9684439454
 10
-549.4530026283
 20
303.0527946831
 10
-540.6873731083
 20
302.3097154361
 10
-531.8698737572
 20
301.7403664343
 10
-523.0142720534
 20
301.3456366485
 10
-514.1343949679
 20
301.1261424026
 10
-505.2441073745
 20
301.0822264107
 10
-496.357290402
 20
301.2139572424
 10
-487.4878197601
 20
301.5211292156
 10
-478.6495440745
 20
302.0032627179
 10
-469.8562632634
 20
302.6596049549
 10
-461.121706991
 20
303.4891311261
 10
-452.4595132301
 20
304.490546025
 10
-443.8832069679
 20
305.6622860611
 10
-435.4061790886
 20
307.0025217012
 10
-427.041665465
 20
308.5091603267
 10
-418.8027262922
 20
310.1798495002
 10
-410.7022256956
 20
312.0119806387
 10
-402.7528116453
 20
314.0026930871
 10
-394.9668962078
 20
316.1488785841
 10
-387.3566361657
 20
318.4471861159
 10
-379.9339140367
 20
320.8940271481
 10
-372.7103195204
 20
323.4855812288
 10
-365.6971314019
 20
326.2178019541
 10
-358.9052999421
 20
329.0864232855
 10
-352.3454297796
 20
332.0869662114
 10
-346.0277633728
 20
335.2147457403
 10
-339.962165008
 20
338.4648782155
 10
-334.158105397
 20
341.8322889412
 10
-328.6246468898
 20
345.3117201052
 10
-323.3704293251
 20
348.8977389888
 10
-318.4036565398
 20
352.5847464492
 10
-313.7320835601
 20
356.3669856618
 10
-309.3630044927
 20
360.2385511092
 10
-305.3032411358
 20
364.1933978014
 10
-301.5591323281
 20
368.2253507149
 10
-298.1365240509
 20
372.3281144338
 10
-295.0407603009
 20
376.4952829796
 10
-292.2766747456
 20
380.7203498132
 10
-289.8485831764
 20
384.9967179943
 10
-287.7602767703
 20
389.3177104817
 10
-286.0150161696
 20
393.6765805586
 10
-284.6155263917
 20
398.0665223666
 10
-283.5639925737
 20
402.4806815329
 10
-282.8620565608
 20
406.9121658718
 10
-282.5108143429
 20
411.3540561466
 10
-282.5108143429
 20
415.799416873
 10
-282.8620565608
 20
420.2413071479
 10
-283.5639925737
 20
424.6727914868
 10
-284.6155263917
 20
429.0869506531
 10
-286.0150161696
 20
433.4768924611
 10
-287.7602767703
 20
437.835762538
 10
-289.8485831764
 20
442.1567550254
 10
-292.2766747456
 20
446.4331232065
 10
-295.0407603009
 20
450.6581900401
 10
-298.1365240509
 20
454.8253585859
 10
-301.5591323281
 20
458.9281223047
 10
-305.3032411358
 20
462.9600752182
 10
-309.3630044927
 20
466.9149219105
 10
-313.7320835601
 20
470.7864873579
 10
-318.4036565398
 20
474.5687265705
 10
-323.3704293251
 20
478.2557340309
 10
-328.6246468898
 20
481.8417529144
 10
-334.158105397
 20
485.3211840784
 10
-339.962165008
 20
488.6885948041
 10
-346.0277633728
 20
491.9387272794
 10
-352.3454297796
 20
495.0665068083
 10
-358.9052999421
 20
498.0670497342
 10
-365.6971314019
 20
500.9356710656
 10
-372.7103195204
 20
503.6678917909
 10
-379.9339140367
 20
506.2594458716
 10
-387.3566361657
 20
508.7062869038
 10
-394.9668962078
 20
511.0045944356
 10
-402.7528116453
 20
513.1507799326
 10
-410.7022256956
 20
515.141492381
 10
-418.8027262922
 20
516.9736235195
 10
-427.041665465
 20
518.644312693
 10
-435.4061790887
 20
520.1509513184
 10
-443.8832069679
 20
521.4911869586
 10
-452.4595132301
 20
522.6629269946
 10
-461.121706991
 20
523.6643418935
 10
-469.8562632634
 20
524.4938680648
 10
-478.6495440745
 20
525.1502103018
 10
-487.4878197601
 20
525.6323438041
 10
-496.357290402
 20
525.9395157773
 10
-505.2441073745
 20
526.071246609
 10
-514.1343949679
 20
526.0273306171
 10
-523.0142720534
 20
525.8078363711
 10
-531.8698737572
 20
525.4131065854
 10
-540.6873731083
 20
524.8437575836
 10
-549.4530026283
 20
524.1006783365
 10
-558.1530758272
 20
523.1850290743
 10
-566.7740085733
 20
522.0982394745
 10
-575.3023403037
 20
520.8420064301
 10
-583.7247550407
 20
519.4182913999
 10
-592.0281021835
 20
517.8293173459
 10
-600.1994170412
 20
516.0775652625
 10
-608.2259410756
 20
514.1657703025
 10
-616.0951418222
 20
512.0969175068
 10
-623.7947324583
 20
509.8742371437
 10
-631.312690987
 20
507.5011996644
 10
-638.6372790085
 20
504.9815102855
 10
-645.7570600482
 20
502.3191032027
 10
-652.6609174131
 20
499.5181354487
 10
-659.3380715494
 20
496.582980402
 10
-665.7780968736
 20
493.518220959
 10
-671.9709380506
 20
490.3286423776
 10
-677.9069256942
 20
487.0192248063
 10
-683.5767914641
 20
483.5951355076
 10
-688.971682538
 20
480.0617207905
 10
-694.0831754341
 20
476.4244976627
 10
-698.9032891628
 20
472.6891452164
 10
-703.4244976888
 20
468.861495761
 10
-707.6397416816
 20
464.9475257166
 10
-711.5424395382
 20
460.953346283
 10
-715.1264976591
 20
456.8851938972
 10
-718.386319963
 20
452.7494204962
 10
-721.3168166243
 20
448.5524835992
 10
-723.9134120204
 20
444.3009362251
 10
-726.1720518759
 20
440.0014166602
 10
-728.0892095926
 20
435.6606380941
 10
-729.6618917564
 20
431.2853781372
 10
-730.8876428108
 20
426.8824682385
 10
-731.7645488911
 20
422.4587830192
 10
-732.2912408123
 20
418.0212295387
 10
-732.4668962078
 20
413.5767365098
  0
ELLIPSE
  5
88
330
1F
100
AcDbEntity
  8
0
  6
Continuous
 62
     7
370
    25
100
AcDbEllipse
 10
-507.4668962078
 20
154.1439336478
 30
0.0
 11
224.9999999999999
 21
0.0
 31
0.0
210
0.0
220
0.0
230
1.0
 40
0.2679491924
 41
3.141592653589849
 42
6.283185307179586
  0
LWPOLYLINE
  5
89
330
1F
100
AcDbEntity
  8
0
  6
Continuous
 62
     7
370
    25
100
AcDbPolyline
 90
      145
 70
   128
 43
0.0
 10
-691.5668962078
 20
413.5767365098
 10
-691.391673801
 20
417.5919011168
 10
-690.8663401265
 20
421.5994226298
 10
-689.9918951867
 20
425.5916725037
 10
-688.7700035373
 20
429.5610512641
 10
-687.2029911186
 20
433.5000029728
 10
-685.2938408276
 20
437.4010296115
 10
-683.0461868405
 20
441.2567053542
 10
-680.4643076945
 20
445.059690703
 10
-677.5531181431
 20
448.802746459
 10
-674.3181598012
 20
452.4787475031
 10
-670.7655905959
 20
456.0806963581
 10
-666.9021730445
 20
459.6017365098
 10
-662.7352613819
 20
463.0351654582
 10
-658.2727875614
 20
466.374447476
 10
-653.5232461554
 20
469.6132260501
 10
-648.495678186
 20
472.7453359815
 10
-643.1996539145
 20
475.7648151209
 10
-637.6452546242
 20
478.6659157181
 10
-631.8430534298
 20
481.4431153632
 10
-625.8040951511
 20
484.0911274989
 10
-619.5398752883
 20
486.6049114836
 10
-613.06231814
 20
488.9796821866
 10
-606.3837541044
 20
491.2109190969
 10
-599.5168962078
 20
493.2943749282
 10
-592.4748159044
 20
495.2260837039
 10
-585.2709181942
 20
497.0023683066
 10
-577.9189161062
 20
498.6198474775
 10
-570.432804594
 20
500.0754422532
 10
-562.8268338965
 20
501.3663818262
 10
-555.1154824112
 20
502.4902088197
 10
-547.3134291338
 20
503.4447839652
 10
-539.4355257163
 20
504.2282901746
 10
-531.4967681955
 20
504.8392359993
 10
-523.5122684476
 20
505.2764584692
 10
-515.4972254217
 20
505.5391253064
 10
-507.4668962078
 20
505.6267365098
 10
-499.4365669938
 20
505.5391253064
 10
-491.4215239679
 20
505.2764584692
 10
-483.4370242201
 20
504.8392359993
 10
-475.4982666993
 20
504.2282901746
 10
-467.6203632818
 20
503.4447839652
 10
-459.8183100044
 20
502.4902088197
 10
-452.106958519
 20
501.3663818262
 10
-444.5009878215
 20
500.0754422532
 10
-437.0148763094
 20
498.6198474775
 10
-429.6628742213
 20
497.0023683066
 10
-422.4589765112
 20
495.2260837039
 10
-415.4168962078
 20
493.2943749282
 10
-408.5500383111
 20
491.2109190969
 10
-401.8714742756
 20
488.9796821866
 10
-395.3939171273
 20
486.6049114836
 10
-389.1296972645
 20
484.0911274989
 10
-383.0907389857
 20
481.4431153632
 10
-377.2885377913
 20
478.6659157181
 10
-371.734138501
 20
475.7648151209
 10
-366.4381142296
 20
472.7453359815
 10
-361.4105462602
 20
469.6132260501
 10
-356.6610048542
 20
466.374447476
 10
-352.1985310336
 20
463.0351654582
 10
-348.0316193711
 20
459.6017365098
 10
-344.1682018197
 20
456.0806963581
 10
-340.6156326143
 20
452.4787475031
 10
-337.3806742725
 20
448.802746459
 10
-334.4694847211
 20
445.059690703
 10
-331.887605575
 20
441.2567053542
 10
-329.639951588
 20
437.4010296115
 10
-327.730801297
 20
433.5000029728
 10
-326.1637888782
 20
429.5610512641
 10
-324.9418972289
 20
425.5916725037
 10
-324.0674522891
 20
421.5994226298
 10
-323.5421186146
 20
417.5919011168
 10
-323.3668962078
 20
413.5767365098
 10
-323.5421186146
 20
409.5615719029
 10
-324.0674522891
 20
405.5540503899
 10
-324.9418972289
 20
401.561800516
 10
-326.1637888782
 20
397.5924217556
 10
-327.730801297
 20
393.6534700468
 10
-329.639951588
 20
389.7524434082
 10
-331.887605575
 20
385.8967676655
 10
-334.4694847211
 20
382.0937823167
 10
-337.3806742725
 20
378.3507265606
 10
-340.6156326143
 20
374.6747255166
 10
-344.1682018197
 20
371.0727766616
 10
-348.0316193711
 20
367.5517365098
 10
-352.1985310336
 20
364.1183075615
 10
-356.6610048542
 20
360.7790255437
 10
-361.4105462602
 20
357.5402469696
 10
-366.4381142296
 20
354.4081370382
 10
-371.734138501
 20
351.3886578988
 10
-377.2885377913
 20
348.4875573016
 10
-383.0907389857
 20
345.7103576565
 10
-389.1296972645
 20
343.0623455207
 10
-395.3939171273
 20
340.548561536
 10
-401.8714742756
 20
338.173790833
 10
-408.5500383111
 20
335.9425539228
 10
-415.4168962078
 20
333.8590980915
 10
-422.4589765112
 20
331.9273893158
 10
-429.6628742213
 20
330.1511047131
 10
-437.0148763094
 20
328.5336255422
 10
-444.5009878215
 20
327.0780307665
 10
-452.1069585191
 20
325.7870911935
 10
-459.8183100044
 20
324.6632641999
 10
-467.6203632818
 20
323.7086890544
 10
-475.4982666993
 20
322.9251828451
 10
-483.4370242201
 20
322.3142370204
 10
-491.4215239679
 20
321.8770145505
 10
-499.4365669938
 20
321.6143477132
 10
-507.4668962078
 20
321.5267365098
 10
-515.4972254217
 20
321.6143477132
 10
-523.5122684476
 20
321.8770145505
 10
-531.4967681955
 20
322.3142370204
 10
-539.4355257163
 20
322.9251828451
 10
-547.3134291338
 20
323.7086890544
 10
-555.1154824112
 20
324.6632641999
 10
-562.8268338965
 20
325.7870911935
 10
-570.432804594
 20
327.0780307665
 10
-577.9189161062
 20
328.5336255422
 10
-585.2709181943
 20
330.1511047131
 10
-592.4748159044
 20
331.9273893158
 10
-599.5168962078
 20
333.8590980915
 10
-606.3837541044
 20
335.9425539228
 10
-613.06231814
 20
338.173790833
 10
-619.5398752883
 20
340.548561536
 10
-625.8040951511
 20
343.0623455207
 10
-631.8430534298
 20
345.7103576565
 10
-637.6452546242
 20
348.4875573016
 10
-643.1996539145
 20
351.3886578988
 10
-648.495678186
 20
354.4081370382
 10
-653.5232461554
 20
357.5402469696
 10
-658.2727875614
 20
360.7790255437
 10
-662.7352613819
 20
364.1183075615
 10
-666.9021730445
 20
367.5517365098
 10
-670.7655905959
 20
371.0727766616
 10
-674.3181598012
 20
374.6747255166
 10
-677.5531181431
 20
378.3507265606
 10
-680.4643076945
 20
382.0937823167
 10
-683.0461868405
 20
385.8967676655
 10
-685.2938408276
 20
389.7524434082
 10
-687.2029911186
 20
393.6534700468
 10
-688.7700035373
 20
397.5924217556
 10
-689.9918951867
 20
401.561800516
 10
-690.8663401265
 20
405.5540503899
 10
-691.391673801
 20
409.5615719029
 10
-691.5668962078
 20
413.5767365098
  0
LINE
  5
8A
330
1F
100
AcDbEntity
  8
0
  6
Continuous
 62
     7
370
    25
100
AcDbLine
 10
-732.4668962078
 20
-145.4232634902
 30
0.0
 11
-282.4668962078
 21
-145.4232634902
 31
0.0
  0
LINE
  5
8B
330
1F
100
AcDbEntity
  8
0
  6
Continuous
 62
     7
370
    25
100
AcDbLine
 10
627.7151954891
 20
413.5767365098
 30
0.0
 11
627.7151954891
 21
154.1439336478
 31
0.0
  0
LINE
  5
8C
330
1F
100
AcDbEntity
  8
0
  6
Continuous
 62
     7
370
    25
100
AcDbLine
 10
1077.7151954891
 20
154.1439336478
 30
0.0
 11
1077.7151954891
 21
413.5767365098
 31
0.0
  0
LINE
  5
8D
330
1F
100
AcDbEntity
  8
0
  6
Continuous
 62
     7
370
    25
100
AcDbLine
 10
627.7151954891
 20
154.1439336478
 30
0.0
 11
627.7151954891
 21
-145.4232634902
 31
0.0
  0
LINE
  5
8E
330
1F
100
AcDbEntity
  8
0
  6
Continuous
 62
     7
370
    25
100
AcDbLine
 10
1077.7151954891
 20
-145.4232634902
 30
0.0
 11
1077.7151954891
 21
154.1439336478
 31
0.0
  0
LWPOLYLINE
  5
8F
330
1F
100
AcDbEntity
  8
0
  6
Continuous
 62
     7
370
    25
100
AcDbPolyline
 90
       81
 70
   128
 43
0.0
 10
627.7151954891
 20
413.5767365098
 10
627.7591136241
 20
415.799416873
 10
628.1103558421
 20
420.2413071479
 10
628.8122918549
 20
424.6727914868
 10
629.8638256729
 20
429.0869506531
 10
631.2633154508
 20
433.4768924611
 10
633.0085760515
 20
437.835762538
 10
635.0968824577
 20
442.1567550254
 10
637.5249740268
 20
446.4331232065
 10
640.2890595822
 20
450.6581900401
 10
643.3848233322
 20
454.8253585859
 10
646.8074316094
 20
458.9281223047
 10
650.5515404171
 20
462.9600752182
 10
654.611303774
 20
466.9149219105
 10
658.9803828414
 20
470.7864873579
 10
663.6519558211
 20
474.5687265705
 10
668.6187286063
 20
478.2557340309
 10
673.8729461711
 20
481.8417529144
 10
679.4064046782
 20
485.3211840784
 10
685.2104642893
 20
488.6885948041
 10
691.2760626541
 20
491.9387272794
 10
697.5937290608
 20
495.0665068083
 10
704.1535992234
 20
498.0670497342
 10
710.9454306832
 20
500.9356710656
 10
717.9586188016
 20
503.6678917909
 10
725.182213318
 20
506.2594458716
 10
732.604935447
 20
508.7062869038
 10
740.2151954891
 20
511.0045944356
 10
748.0011109266
 20
513.1507799326
 10
755.9505249768
 20
515.141492381
 10
764.0510255734
 20
516.9736235195
 10
772.2899647463
 20
518.644312693
 10
780.6544783699
 20
520.1509513184
 10
789.1315062492
 20
521.4911869586
 10
797.7078125114
 20
522.6629269946
 10
806.3700062723
 20
523.6643418935
 10
815.1045625447
 20
524.4938680648
 10
823.8978433558
 20
525.1502103018
 10
832.7361190414
 20
525.6323438041
 10
841.6055896832
 20
525.9395157773
 10
850.4924066557
 20
526.071246609
 10
859.3826942491
 20
526.0273306171
 10
868.2625713347
 20
525.8078363711
 10
877.1181730385
 20
525.4131065854
 10
885.9356723896
 20
524.8437575836
 10
894.7013019096
 20
524.1006783365
 10
903.4013751084
 20
523.1850290743
 10
912.0223078546
 20
522.0982394745
 10
920.550639585
 20
520.8420064301
 10
928.973054322
 20
519.4182913999
 10
937.2764014648
 20
517.8293173459
 10
945.4477163224
 20
516.0775652625
 10
953.4742403568
 20
514.1657703025
 10
961.3434411035
 20
512.0969175068
 10
969.0430317395
 20
509.8742371437
 10
976.5609902683
 20
507.5011996644
 10
983.8855782898
 20
504.9815102855
 10
991.0053593295
 20
502.3191032027
 10
997.9092166943
 20
499.5181354487
 10
1004.5863708307
 20
496.582980402
 10
1011.0263961549
 20
493.518220959
 10
1017.2192373319
 20
490.3286423776
 10
1023.1552249754
 20
487.0192248063
 10
1028.8250907453
 20
483.5951355076
 10
1034.2199818193
 20
480.0617207905
 10
1039.3314747154
 20
476.4244976627
 10
1044.1515884441
 20
472.6891452164
 10
1048.67279697
 20
468.861495761
 10
1052.8880409629
 20
464.9475257166
 10
1056.7907388194
 20
460.953346283
 10
1060.3747969403
 20
456.8851938972
 10
1063.6346192442
 20
452.7494204962
 10
1066.5651159056
 20
448.5524835992
 10
1069.1617113017
 20
444.3009362251
 10
1071.4203511571
 20
440.0014166602
 10
1073.3375088739
 20
435.6606380941
 10
1074.9101910377
 20
431.2853781372
 10
1076.1359420921
 20
426.8824682385
 10
1077.0128481723
 20
422.4587830192
 10
1077.5395400936
 20
418.0212295387
 10
1077.7151954891
 20
413.5767365098
  0
ELLIPSE
  5
90
330
1F
100
AcDbEntity
  8
0
  6
Continuous
 62
     7
370
    25
100
AcDbEllipse
 10
852.7151954891
 20
154.1439336478
 30
0.0
 11
224.9999999999998
 21
0.0
 31
0.0
210
0.0
220
0.0
230
1.0
 40
0.2679491924
 41
1.570796326794897
 42
3.141592653589849
  0
ELLIPSE
  5
91
330
1F
100
AcDbEntity
  8
0
  6
Continuous
 62
     7
370
    25
100
AcDbEllipse
 10
852.7151954891
 20
154.1439336478
 30
0.0
 11
224.9999999999998
 21
0.0
 31
0.0
210
0.0
220
0.0
230
1.0
 40
0.2679491924
 41
0.0
 42
1.570796326794926
  0
LINE
  5
92
330
1F
100
AcDbEntity
  8
0
  6
Continuous
 62
     7
370
    25
100
AcDbLine
 10
627.7151954891
 20
-145.4232634902
 30
0.0
 11
1077.7151954891
 21
-145.4232634902
 31
0.0
  0
LINE
  5
93
330
1F
100
AcDbEntity
  8
0
  6
Continuous
 62
     7
370
    25
100
AcDbLine
 10
278.2120646631
 20
1106.5718387531
 30
0.0
 11
128.4284660941
 21
1106.5718387531
 31
0.0
  0
LINE
  5
94
330
1F
100
AcDbEntity
  8
0
  6
Continuous
 62
     7
370
    25
100
AcDbLine
 10
128.4284660941
 20
656.5718387531
 30
0.0
 11
278.2120646631
 21
656.5718387531
 31
0.0
  0
CIRCLE
  5
95
330
1F
100
AcDbEntity
  8
0
  6
Continuous
 62
     7
370
    25
100
AcDbCircle
 10
128.4284660941
 20
881.5718387531
 30
0.0
 40
225.0
  0
CIRCLE
  5
96
330
1F
100
AcDbEntity
  8
0
  6
Continuous
 62
     7
370
    25
100
AcDbCircle
 10
128.4284660941
 20
881.5718387531
 30
0.0
 40
184.1000000000001
  0
LWPOLYLINE
  5
97
330
1F
100
AcDbEntity
  8
0
  6
Continuous
 62
     7
370
    25
100
AcDbPolyline
 90
       81
 70
   128
 43
0.0
 10
278.2120646631
 20
1106.5718387531
 10
285.9101524029
 20
1106.3961833576
 10
293.5962204925
 20
1105.8694914364
 10
301.258268049
 20
1104.9925853561
 10
308.8843316946
 20
1103.7668343017
 10
316.4625042363
 20
1102.1941521379
 10
323.9809532572
 20
1100.2769944212
 10
331.4279395917
 20
1098.0183545657
 10
338.7918356546
 20
1095.4217591696
 10
346.0611435963
 20
1092.4912625083
 10
353.2245132554
 20
1089.2314402044
 10
360.2707598806
 20
1085.6473820835
 10
367.1888815941
 20
1081.7446842269
 10
373.9680765702
 20
1077.5294402341
 10
380.5977599006
 20
1073.0082317081
 10
387.0675801219
 20
1068.1881179794
 10
393.3674353776
 20
1063.0766250833
 10
399.4874891918
 20
1057.6817340094
 10
405.4181858268
 20
1052.0118682395
 10
411.1502652039
 20
1046.0758805959
 10
416.6747773615
 20
1039.8830394189
 10
421.9830964298
 20
1033.4430140947
 10
427.0669340986
 20
1026.7658599584
 10
431.918352559
 20
1019.8620025935
 10
436.5297768968
 20
1012.7422215538
 10
440.8940069204
 20
1005.4176335323
 10
445.0042284027
 20
997.8996750036
 10
448.8540237208
 20
990.2000843675
 10
452.4373818762
 20
982.3308836209
 10
455.7487078805
 20
974.3043595865
 10
458.7828314913
 20
966.1330447288
 10
461.5350152848
 20
957.829697586
 10
464.0009620526
 20
949.407282849
 10
466.1768215116
 20
940.8789511186
 10
468.0591963156
 20
932.2580183725
 10
469.6451473597
 20
923.5579451736
 10
470.9321983696
 20
914.7923156536
 10
471.918339768
 20
905.9748163025
 10
472.6020318122
 20
897.1192145987
 10
472.9822069981
 20
888.2393375132
 10
473.0582717274
 20
879.3490499198
 10
472.830107234
 20
870.4622329473
 10
472.2980697696
 20
861.5927623054
 10
471.4629900477
 20
852.7544866198
 10
470.3261719461
 20
843.9612058087
 10
468.8893904712
 20
835.2266495363
 10
467.1548889869
 20
826.5644557754
 10
465.1253757112
 20
817.9881495132
 10
462.8040194883
 20
809.5111216339
 10
460.1944448403
 20
801.1466080103
 10
457.3007263083
 20
792.9076688375
 10
454.1273820902
 20
784.8071682409
 10
450.6793669864
 20
776.8577541906
 10
446.9620646631
 20
769.0718387531
 10
442.9812792466
 20
761.461578711
 10
438.7432262608
 20
754.038856582
 10
434.2545229224
 20
746.8152620657
 10
429.5221778088
 20
739.8020739472
 10
424.553579915
 20
733.0102424874
 10
419.356487117
 20
726.4503723249
 10
413.9390140582
 20
720.1327059181
 10
408.3096194797
 20
714.0671075533
 10
402.4770930128
 20
708.2630479423
 10
396.4505414553
 20
702.7295894351
 10
390.2393745521
 20
697.4753718704
 10
383.8532903029
 20
692.5085990851
 10
377.3022598202
 20
687.8370261054
 10
370.5965117605
 20
683.467947038
 10
363.7465163534
 20
679.4081836811
 10
356.7629690535
 20
675.6640748734
 10
349.6567738409
 20
672.2414665962
 10
342.439026196
 20
669.1457028462
 10
335.1209957748
 20
666.3816172909
 10
327.7141088132
 20
663.9535257217
 10
320.2299302859
 20
661.8652193156
 10
312.6801458492
 20
660.1199587149
 10
305.0765435954
 20
658.720468937
 10
297.4309956468
 20
657.668935119
 10
289.7554396188
 20
656.9669991061
 10
282.0618599811
 20
656.6157568882
 10
278.2120646631
 20
656.5718387531
  0
LWPOLYLINE
  5
98
330
1F
100
AcDbEntity
  8
0
  6
Continuous
 62
     7
370
    25
100
AcDbPolyline
 90
       53
 70
   128
 43
0.0
 10
208.697254646
 20
1047.2514439687
 10
204.593046683
 20
1044.8705331412
 10
198.4944262447
 20
1041.0071155898
 10
192.547552862
 20
1036.8402039272
 10
186.7637467464
 20
1032.3777301067
 10
181.1540177015
 20
1027.6281887007
 10
175.7290441655
 20
1022.6006207313
 10
170.4991528837
 20
1017.3045964598
 10
165.4742992515
 20
1011.7501971695
 10
160.6640483633
 20
1005.9479959751
 10
156.0775568052
 20
999.9090376964
 10
151.7235552244
 20
993.6448178336
 10
147.6103317105
 20
987.1672606853
 10
143.7457160182
 20
980.4886966497
 10
140.1370646631
 20
973.6218387531
 10
136.7912469181
 20
966.5797584497
 10
133.7146317376
 20
959.3758607396
 10
130.9130756334
 20
952.0238586515
 10
128.3919115266
 20
944.5377471393
 10
126.1559385967
 20
936.9317764418
 10
124.2094131449
 20
929.2204249565
 10
122.5560404933
 20
921.4183716791
 10
121.1989679306
 20
913.5404682616
 10
120.1407787216
 20
905.6017107408
 10
119.3834871895
 20
897.6172109929
 10
118.9285348819
 20
889.602167967
 10
118.7767878263
 20
881.5718387531
 10
118.9285348819
 20
873.5415095391
 10
119.3834871895
 20
865.5264665132
 10
120.1407787216
 20
857.5419667654
 10
121.1989679306
 20
849.6032092446
 10
122.5560404933
 20
841.7253058271
 10
124.2094131449
 20
833.9232525497
 10
126.1559385967
 20
826.2119010644
 10
128.3919115266
 20
818.6059303668
 10
130.9130756334
 20
811.1198188547
 10
133.7146317376
 20
803.7678167666
 10
136.7912469181
 20
796.5639190565
 10
140.1370646631
 20
789.5218387531
 10
143.7457160182
 20
782.6549808564
 10
147.6103317105
 20
775.9764168209
 10
151.7235552244
 20
769.4988596726
 10
156.0775568052
 20
763.2346398098
 10
160.6640483633
 20
757.195681531
 10
165.4742992515
 20
751.3934803366
 10
170.4991528837
 20
745.8390810463
 10
175.7290441655
 20
740.5430567749
 10
181.1540177015
 20
735.5154888055
 10
186.7637467464
 20
730.7659473995
 10
192.547552862
 20
726.3034735789
 10
198.4944262447
 20
722.1365619164
 10
204.593046683
 20
718.273144365
 10
208.697254646
 20
715.8922335375
  0
INSERT
  5
A4
330
1F
100
AcDbEntity
  8
FORMAT
 62
     7
100
AcDbBlockReference
  2
SW_CENTERMARKSYMBOL_0
 10
128.4284660941
 20
881.5718387531
 30
0.0
  0
LINE
  5
A5
330
1F
100
AcDbEntity
  8
0
  6
Continuous
 62
     7
370
    25
100
AcDbLine
 10
278.2120646631
 20
-405.825756101
 30
0.0
 11
128.4284660941
 21
-405.825756101
 31
0.0
  0
LINE
  5
A6
330
1F
100
AcDbEntity
  8
0
  6
Continuous
 62
     7
370
    25
100
AcDbLine
 10
128.4284660941
 20
-855.825756101
 30
0.0
 11
278.2120646631
 21
-855.825756101
 31
0.0
  0
LWPOLYLINE
  5
A7
330
1F
100
AcDbEntity
  8
0
  6
Continuous
 62
     7
370
    25
100
AcDbPolyline
 90
      160
 70
   128
 43
0.0
 10
278.2120646631
 20
-855.825756101
 10
285.9101524029
 20
-855.6501007055
 10
293.5962204925
 20
-855.1234087842
 10
301.258268049
 20
-854.246502704
 10
308.8843316946
 20
-853.0207516496
 10
316.4625042363
 20
-851.4480694858
 10
323.9809532572
 20
-849.5309117691
 10
331.4279395917
 20
-847.2722719136
 10
338.7918356546
 20
-844.6756765175
 10
346.0611435963
 20
-841.7451798562
 10
353.2245132554
 20
-838.4853575523
 10
360.2707598806
 20
-834.9012994314
 10
367.1888815941
 20
-830.9986015748
 10
373.9680765702
 20
-826.783357582
 10
380.5977599006
 20
-822.262149056
 10
387.0675801219
 20
-817.4420353273
 10
393.3674353776
 20
-812.3305424312
 10
399.4874891918
 20
-806.9356513573
 10
405.4181858268
 20
-801.2657855873
 10
411.1502652039
 20
-795.3297979438
 10
416.6747773615
 20
-789.1369567668
 10
421.9830964298
 20
-782.6969314426
 10
427.0669340986
 20
-776.0197773063
 10
431.918352559
 20
-769.1159199414
 10
436.5297768968
 20
-761.9961389017
 10
440.8940069204
 20
-754.6715508802
 10
445.0042284027
 20
-747.1535923515
 10
448.8540237208
 20
-739.4540017154
 10
452.4373818762
 20
-731.5848009687
 10
455.7487078805
 20
-723.5582769343
 10
458.7828314913
 20
-715.3869620767
 10
461.5350152848
 20
-707.0836149339
 10
464.0009620526
 20
-698.6612001969
 10
466.1768215116
 20
-690.1328684665
 10
468.0591963156
 20
-681.5119357203
 10
469.6451473597
 20
-672.8118625215
 10
470.9321983696
 20
-664.0462330015
 10
471.918339768
 20
-655.2287336504
 10
472.6020318122
 20
-646.3731319466
 10
472.9822069981
 20
-637.493254861
 10
473.0582717274
 20
-628.6029672676
 10
472.830107234
 20
-619.7161502951
 10
472.2980697696
 20
-610.8466796533
 10
471.4629900477
 20
-602.0084039677
 10
470.3261719461
 20
-593.2151231566
 10
468.8893904712
 20
-584.4805668842
 10
467.1548889869
 20
-575.8183731233
 10
465.1253757112
 20
-567.2420668611
 10
462.8040194883
 20
-558.7650389818
 10
460.1944448403
 20
-550.4005253582
 10
457.3007263083
 20
-542.1615861854
 10
454.1273820902
 20
-534.0610855888
 10
450.6793669864
 20
-526.1116715385
 10
446.9620646631
 20
-518.325756101
 10
442.9812792466
 20
-510.7154960589
 10
438.7432262608
 20
-503.2927739299
 10
434.2545229224
 20
-496.0691794135
 10
429.5221778088
 20
-489.0559912951
 10
424.553579915
 20
-482.2641598353
 10
419.356487117
 20
-475.7042896727
 10
413.9390140582
 20
-469.386623266
 10
408.3096194797
 20
-463.3210249012
 10
402.4770930128
 20
-457.5169652902
 10
396.4505414553
 20
-451.983506783
 10
390.2393745521
 20
-446.7292892182
 10
383.8532903029
 20
-441.762516433
 10
377.3022598202
 20
-437.0909434533
 10
370.5965117605
 20
-432.7218643859
 10
363.7465163534
 20
-428.662101029
 10
356.7629690535
 20
-424.9179922213
 10
349.6567738409
 20
-421.4953839441
 10
342.439026196
 20
-418.3996201941
 10
335.1209957748
 20
-415.6355346388
 10
327.7141088132
 20
-413.2074430696
 10
320.2299302859
 20
-411.1191366634
 10
312.6801458492
 20
-409.3738760628
 10
305.0765435954
 20
-407.9743862848
 10
297.4309956468
 20
-406.9228524668
 10
289.7554396188
 20
-406.220916454
 10
282.0618599811
 20
-405.8696742361
 10
274.362269345
 20
-405.8696742361
 10
266.6686897073
 20
-406.220916454
 10
258.9931336794
 20
-406.9228524669
 10
251.3475857307
 20
-407.9743862848
 10
243.7439834769
 20
-409.3738760628
 10
236.1941990402
 20
-411.1191366634
 10
228.7100205129
 20
-413.2074430696
 10
221.3031335513
 20
-415.6355346388
 10
213.9851031301
 20
-418.3996201941
 10
206.7673554852
 20
-421.4953839441
 10
199.6611602726
 20
-424.9179922213
 10
192.6776129727
 20
-428.662101029
 10
185.8276175656
 20
-432.7218643859
 10
179.1218695059
 20
-437.0909434533
 10
172.5708390232
 20
-441.762516433
 10
166.184754774
 20
-446.7292892182
 10
159.9735878708
 20
-451.983506783
 10
153.9470363133
 20
-457.5169652902
 10
148.1145098464
 20
-463.3210249012
 10
142.4851152679
 20
-469.386623266
 10
137.0676422091
 20
-475.7042896727
 10
131.8705494111
 20
-482.2641598353
 10
126.9019515174
 20
-489.0559912951
 10
122.1696064037
 20
-496.0691794135
 10
117.6809030653
 20
-503.2927739299
 10
113.4428500795
 20
-510.7154960589
 10
109.4620646631
 20
-518.325756101
 10
105.7447623397
 20
-526.1116715385
 10
102.2967472359
 20
-534.0610855888
 10
99.1234030178
 20
-542.1615861854
 10
96.2296844858
 20
-550.4005253582
 10
93.6201098378
 20
-558.7650389818
 10
91.2987536149
 20
-567.2420668611
 10
89.2692403392
 20
-575.8183731233
 10
87.5347388549
 20
-584.4805668842
 10
86.0979573801
 20
-593.2151231566
 10
84.9611392784
 20
-602.0084039677
 10
84.1260595565
 20
-610.8466796533
 10
83.5940220922
 20
-619.7161502951
 10
83.3658575987
 20
-628.6029672676
 10
83.441922328
 20
-637.4932548611
 10
83.8220975139
 20
-646.3731319466
 10
84.5057895581
 20
-655.2287336504
 10
85.4919309565
 20
-664.0462330015
 10
86.7789819664
 20
-672.8118625215
 10
88.3649330105
 20
-681.5119357203
 10
90.2473078145
 20
-690.1328684665
 10
92.4231672735
 20
-698.6612001969
 10
94.8891140413
 20
-707.0836149339
 10
97.6412978348
 20
-715.3869620767
 10
100.6754214456
 20
-723.5582769343
 10
103.98674745
 20
-731.5848009687
 10
107.5701056054
 20
-739.4540017154
 10
111.4199009234
 20
-747.1535923515
 10
115.5301224057
 20
-754.6715508802
 10
119.8943524293
 20
-761.9961389017
 10
124.5057767672
 20
-769.1159199414
 10
129.3571952275
 20
-776.0197773063
 10
134.4410328963
 20
-782.6969314426
 10
139.7493519646
 20
-789.1369567668
 10
145.2738641223
 20
-795.3297979438
 10
151.0059434994
 20
-801.2657855873
 10
156.9366401344
 20
-806.9356513573
 10
163.0566939485
 20
-812.3305424312
 10
169.3565492043
 20
-817.4420353273
 10
175.8263694255
 20
-822.262149056
 10
182.4560527559
 20
-826.783357582
 10
189.235247732
 20
-830.9986015748
 10
196.1533694455
 20
-834.9012994314
 10
203.1996160707
 20
-838.4853575523
 10
210.3629857298
 20
-841.7451798562
 10
217.6322936716
 20
-844.6756765175
 10
224.9961897344
 20
-847.2722719136
 10
232.4431760689
 20
-849.5309117691
 10
239.9616250898
 20
-851.4480694858
 10
247.5397976315
 20
-853.0207516496
 10
255.1658612772
 20
-854.246502704
 10
262.8279088337
 20
-855.1234087842
 10
270.5139769233
 20
-855.6501007055
 10
278.2120646631
 20
-855.825756101
  0
ARC
  5
A8
330
1F
100
AcDbEntity
  8
0
  6
Continuous
 62
     7
370
    25
100
AcDbCircle
 10
128.4284660941
 20
-630.825756101
 30
0.0
 40
225.0
100
AcDbArc
 50
90.0
 51
180.0
  0
ARC
  5
A9
330
1F
100
AcDbEntity
  8
0
  6
Continuous
 62
     7
370
    25
100
AcDbCircle
 10
128.4284660941
 20
-630.825756101
 30
0.0
 40
225.0
100
AcDbArc
 50
180.0
 51
270.0
  0
LWPOLYLINE
  5
AA
330
1F
100
AcDbEntity
  8
0
  6
Continuous
 62
     7
370
    25
100
AcDbPolyline
 90
      145
 70
   128
 43
0.0
 10
278.2120646631
 20
-814.925756101
 10
271.257595563
 20
-814.7505336942
 10
264.3163646902
 20
-814.2252000197
 10
257.401585072
 20
-813.3507550799
 10
250.5264193845
 20
-812.1288634305
 10
243.7039548964
 20
-810.5618510118
 10
236.9471785565
 20
-808.6527007208
 10
230.2689522727
 20
-806.4050467337
 10
223.6819884282
 20
-803.8231675877
 10
217.1988256831
 20
-800.9119780363
 10
210.8318051062
 20
-797.6770196944
 10
204.593046683
 20
-794.1244504891
 10
198.4944262447
 20
-790.2610329377
 10
192.547552862
 20
-786.0941212751
 10
186.7637467464
 20
-781.6316474546
 10
181.1540177015
 20
-776.8821060486
 10
175.7290441655
 20
-771.8545380792
 10
170.4991528837
 20
-766.5585138077
 10
165.4742992515
 20
-761.0041145174
 10
160.6640483633
 20
-755.201913323
 10
156.0775568052
 20
-749.1629550443
 10
151.7235552244
 20
-742.8987351815
 10
147.6103317105
 20
-736.4211780332
 10
143.7457160182
 20
-729.7426139976
 10
140.1370646631
 20
-722.875756101
 10
136.7912469181
 20
-715.8336757975
 10
133.7146317376
 20
-708.6297780874
 10
130.9130756334
 20
-701.2777759994
 10
128.3919115266
 20
-693.7916644872
 10
126.1559385967
 20
-686.1856937897
 10
124.2094131449
 20
-678.4743423043
 10
122.5560404933
 20
-670.672289027
 10
121.1989679306
 20
-662.7943856095
 10
120.1407787216
 20
-654.8556280887
 10
119.3834871895
 20
-646.8711283408
 10
118.9285348819
 20
-638.8560853149
 10
118.7767878263
 20
-630.825756101
 10
118.9285348819
 20
-622.795426887
 10
119.3834871895
 20
-614.7803838611
 10
120.1407787216
 20
-606.7958841133
 10
121.1989679306
 20
-598.8571265925
 10
122.5560404933
 20
-590.979223175
 10
124.2094131449
 20
-583.1771698976
 10
126.1559385967
 20
-575.4658184122
 10
128.3919115266
 20
-567.8598477147
 10
130.9130756334
 20
-560.3737362026
 10
133.7146317376
 20
-553.0217341145
 10
136.7912469181
 20
-545.8178364044
 10
140.1370646631
 20
-538.775756101
 10
143.7457160182
 20
-531.9088982043
 10
147.6103317105
 20
-525.2303341687
 10
151.7235552244
 20
-518.7527770205
 10
156.0775568052
 20
-512.4885571577
 10
160.6640483633
 20
-506.4495988789
 10
165.4742992515
 20
-500.6473976845
 10
170.4991528837
 20
-495.0929983942
 10
175.7290441655
 20
-489.7969741228
 10
181.1540177015
 20
-484.7694061534
 10
186.7637467464
 20
-480.0198647474
 10
192.547552862
 20
-475.5573909268
 10
198.4944262447
 20
-471.3904792643
 10
204.593046683
 20
-467.5270617129
 10
210.8318051062
 20
-463.9744925075
 10
217.1988256831
 20
-460.7395341656
 10
223.6819884282
 20
-457.8283446143
 10
230.2689522727
 20
-455.2464654682
 10
236.9471785565
 20
-452.9988114812
 10
243.7039548964
 20
-451.0896611902
 10
250.5264193845
 20
-449.5226487714
 10
257.401585072
 20
-448.3007571221
 10
264.3163646902
 20
-447.4263121823
 10
271.257595563
 20
-446.9009785078
 10
278.2120646631
 20
-446.725756101
 10
285.1665337631
 20
-446.9009785078
 10
292.1077646359
 20
-447.4263121823
 10
299.0225442541
 20
-448.3007571221
 10
305.8977099416
 20
-449.5226487714
 10
312.7201744297
 20
-451.0896611902
 10
319.4769507696
 20
-452.9988114812
 10
326.1551770534
 20
-455.2464654682
 10
332.7421408979
 20
-457.8283446143
 10
339.225303643
 20
-460.7395341656
 10
345.5923242199
 20
-463.9744925075
 10
351.8310826432
 20
-467.5270617129
 10
357.9297030814
 20
-471.3904792643
 10
363.8765764641
 20
-475.5573909268
 10
369.6603825797
 20
-480.0198647474
 10
375.2701116246
 20
-484.7694061534
 10
380.6950851606
 20
-489.7969741228
 10
385.9249764424
 20
-495.0929983942
 10
390.9498300747
 20
-500.6473976845
 10
395.7600809628
 20
-506.4495988789
 10
400.346572521
 20
-512.4885571577
 10
404.7005741017
 20
-518.7527770205
 10
408.8137976156
 20
-525.2303341687
 10
412.678413308
 20
-531.9088982043
 10
416.2870646631
 20
-538.775756101
 10
419.632882408
 20
-545.8178364044
 10
422.7094975885
 20
-553.0217341145
 10
425.5110536928
 20
-560.3737362026
 10
428.0322177995
 20
-567.8598477147
 10
430.2681907295
 20
-575.4658184122
 10
432.2147161812
 20
-583.1771698976
 10
433.8680888328
 20
-590.979223175
 10
435.2251613955
 20
-598.8571265925
 10
436.2833506045
 20
-606.7958841133
 10
437.0406421366
 20
-614.7803838611
 10
437.4955944442
 20
-622.795426887
 10
437.6473414998
 20
-630.825756101
 10
437.4955944442
 20
-638.8560853149
 10
437.0406421366
 20
-646.8711283408
 10
436.2833506045
 20
-654.8556280887
 10
435.2251613955
 20
-662.7943856095
 10
433.8680888328
 20
-670.672289027
 10
432.2147161812
 20
-678.4743423044
 10
430.2681907295
 20
-686.1856937897
 10
428.0322177995
 20
-693.7916644872
 10
425.5110536928
 20
-701.2777759994
 10
422.7094975885
 20
-708.6297780874
 10
419.632882408
 20
-715.8336757975
 10
416.2870646631
 20
-722.875756101
 10
412.678413308
 20
-729.7426139976
 10
408.8137976156
 20
-736.4211780332
 10
404.7005741017
 20
-742.8987351815
 10
400.346572521
 20
-749.1629550443
 10
395.7600809628
 20
-755.201913323
 10
390.9498300747
 20
-761.0041145174
 10
385.9249764424
 20
-766.5585138077
 10
380.6950851606
 20
-771.8545380792
 10
375.2701116246
 20
-776.8821060486
 10
369.6603825797
 20
-781.6316474546
 10
363.8765764641
 20
-786.0941212751
 10
357.9297030814
 20
-790.2610329377
 10
351.8310826432
 20
-794.1244504891
 10
345.5923242199
 20
-797.6770196944
 10
339.225303643
 20
-800.9119780363
 10
332.7421408979
 20
-803.8231675877
 10
326.1551770534
 20
-806.4050467337
 10
319.4769507696
 20
-808.6527007208
 10
312.7201744297
 20
-810.5618510118
 10
305.8977099416
 20
-812.1288634305
 10
299.0225442541
 20
-813.3507550799
 10
292.1077646359
 20
-814.2252000197
 10
285.1665337631
 20
-814.7505336942
 10
278.2120646631
 20
-814.925756101
  0
ARC
  5
AB
330
1F
100
AcDbEntity
  8
0
  6
Continuous
 62
     7
370
    25
100
AcDbCircle
 10
128.4284660941
 20
-630.825756101
 30
0.0
 40
184.1
100
AcDbArc
 50
295.8493535416
 51
64.1506464584
  0
LINE
  5
AC
330
1F
100
AcDbEntity
  8
0
  6
Continuous
 62
     7
370
    25
100
AcDbLine
 10
583.741435114
 20
-579.5065817304
 30
0.0
 11
583.741435114
 21
-858.924930817
 31
0.0
  0
LINE
  5
AD
330
1F
100
AcDbEntity
  8
0
  6
Continuous
 62
     7
370
    25
100
AcDbLine
 10
1033.741435114
 20
-858.924930817
 30
0.0
 11
1033.741435114
 21
-649.1255951728
 31
0.0
  0
LINE
  5
AE
330
1F
100
AcDbEntity
  8
0
  6
Continuous
 62
     7
370
    25
100
AcDbLine
 10
704.8896450929
 20
-259.9500213654
 30
0.0
 11
586.3854567758
 21
-565.3822488779
 31
0.0
  0
LINE
  5
AF
330
1F
100
AcDbEntity
  8
0
  6
Continuous
 62
     7
370
    25
100
AcDbLine
 10
1033.741435114
 20
-656.435237024
 30
0.0
 11
1124.4192216525
 21
-422.7226676906
 31
0.0
  0
LWPOLYLINE
  5
B0
330
1F
100
AcDbEntity
  8
0
  6
Continuous
 62
     7
370
    25
100
AcDbPolyline
 90
      160
 70
   128
 43
0.0
 10
649.6424093471
 20
-767.079018237
 10
656.0520787876
 20
-763.5222013202
 10
662.7001545327
 20
-760.1143444405
 10
669.5762564012
 20
-756.8607685619
 10
676.6696481765
 20
-753.7665537569
 10
683.9692543691
 20
-750.8365312747
 10
691.4636775107
 20
-748.0752759975
 10
699.141215949
 20
-745.4870992976
 10
706.9898821193
 20
-743.0760423058
 10
714.9974212609
 20
-740.8458696013
 10
723.151330552
 20
-738.8000633341
 10
731.4388786313
 20
-736.9418177877
 10
739.8471254762
 20
-735.2740343921
 10
748.3629426073
 20
-733.799317193
 10
756.9730335871
 20
-732.5199687863
 10
765.6639547806
 20
-731.4379867226
 10
774.422136346
 20
-730.5550603885
 10
783.2339034225
 20
-729.8725683687
 10
792.0854974818
 20
-729.3915762934
 10
800.9630978106
 20
-729.1128351746
 10
809.8528430897
 20
-729.0367802336
 10
818.7408530372
 20
-729.163530221
 10
827.6132500806
 20
-729.4928872319
 10
836.4561810252
 20
-730.0243370143
 10
845.2558386839
 20
-730.7570497725
 10
853.998483436
 20
-731.6898814626
 10
862.6704646795
 20
-732.8213755785
 10
871.2582421451
 20
-734.1497654265
 10
879.7484070377
 20
-735.6729768835
 10
888.1277029727
 20
-737.3886316358
 10
896.3830466741
 20
-739.2940508919
 10
904.5015484028
 20
-741.3862595661
 10
912.4705320819
 20
-743.6619909227
 10
920.2775550896
 20
-746.1176916774
 10
927.910427686
 20
-748.7495275451
 10
935.3572320467
 20
-751.5533892263
 10
942.6063408707
 20
-754.5248988239
 10
949.6464355352
 20
-757.6594166785
 10
956.4665237678
 20
-760.9520486125
 10
963.0559568106
 20
-764.3976535719
 10
969.404446046
 20
-767.9908516537
 10
975.5020790616
 20
-771.7260325056
 10
981.3393351275
 20
-775.5973640861
 10
986.907100061
 20
-779.5988017704
 10
992.1966804583
 20
-783.7240977887
 10
997.1998172674
 20
-787.9668109809
 10
1001.9086986841
 20
-792.3203168539
 10
1006.3159723491
 20
-796.7778179253
 10
1010.4147568277
 20
-801.332354336
 10
1014.1986523546
 20
-805.9768147184
 10
1017.6617508259
 20
-810.7039472987
 10
1020.7986450246
 20
-815.5063712205
 10
1023.6044370627
 20
-820.3765880691
 10
1026.0747460291
 20
-825.3069935789
 10
1028.2057148295
 20
-830.2898895071
 10
1029.994016209
 20
-835.317495653
 10
1031.4368579475
 20
-840.3819620066
 10
1032.5319872188
 20
-845.4753810048
 10
1033.2776941084
 20
-850.5897998785
 10
1033.6728142837
 20
-855.7172330697
 10
1033.7167308114
 20
-860.8496747002
 10
1033.4093751211
 20
-865.9791110716
 10
1032.7512271121
 20
-871.0975331778
 10
1031.7433144045
 20
-876.1969492105
 10
1030.3872107342
 20
-881.2693970368
 10
1028.6850334963
 20
-886.3069566315
 10
1026.6394404384
 20
-891.3017624433
 10
1024.2536255112
 20
-896.2460156759
 10
1021.5313138815
 20
-901.1319964648
 10
1018.4767561159
 20
-905.952075931
 10
1015.0947215435
 20
-910.6987280925
 10
1011.3904908101
 20
-915.3645416155
 10
1007.369847632
 20
-919.942231386
 10
1003.0390697664
 20
-924.4246498849
 10
998.4049192088
 20
-928.8047983477
 10
993.4746316352
 20
-933.0758376926
 10
988.2559051044
 20
-937.2310991987
 10
982.7568880384
 20
-941.2640949184
 10
976.9861664994
 20
-945.1685278075
 10
970.9527507843
 20
-948.9383015577
 10
964.6660613554
 20
-952.5675301147
 10
958.135914132
 20
-956.0505468689
 10
951.3725051638
 20
-959.3819135032
 10
944.3863947111
 20
-962.556428484
 10
937.1884907559
 20
-965.569135183
 10
929.790031971
 20
-968.4153296163
 10
922.2025701714
 20
-971.0905677891
 10
914.437952278
 20
-973.5906726347
 10
906.50830182
 20
-975.9117405361
 10
898.4260000053
 20
-978.0501474212
 10
890.2036663888
 20
-980.0025544217
 10
881.8541391682
 20
-981.7659130857
 10
873.3904551392
 20
-983.3374701379
 10
864.8258293398
 20
-984.7147717787
 10
856.1736344164
 20
-985.895667515
 10
847.4473797444
 20
-986.8783135182
 10
838.6606903345
 20
-987.6611755033
 10
829.8272855591
 20
-988.2430311243
 10
820.9609577314
 20
-988.6229718826
 10
812.0755505696
 20
-988.8004045459
 10
803.1849375823
 20
-988.7750520741
 10
794.3030004064
 20
-988.5469540521
 10
785.4436071323
 20
-988.1164666279
 10
776.6205906509
 20
-987.4842619565
 10
767.8477270552
 20
-986.6513271504
 10
759.1387141303
 20
-985.6189627384
 10
750.507149966
 20
-984.3887806351
 10
741.9665117251
 20
-982.9627016238
 10
733.5301346004
 20
-981.3429523575
 10
725.2111909934
 20
-979.5320618825
 10
717.0226699469
 20
-977.5328576892
 10
708.9773568646
 20
-975.3484612978
 10
701.0878135477
 20
-972.9822833838
 10
693.3663585817
 20
-970.4380184532
 10
685.8250481018
 20
-967.7196390736
 10
678.4756569692
 20
-964.8313896719
 10
671.3296603856
 20
-961.7777799064
 10
664.3982159766
 20
-958.5635776265
 10
657.6921463697
 20
-955.1938014274
 10
651.2219222965
 20
-951.6737128147
 10
644.9976462439
 20
-948.0088079888
 10
639.02903668
 20
-944.2048092636
 10
633.3254128802
 20
-940.2676561315
 10
627.8956803761
 20
-936.2034959898
 10
622.7483170502
 20
-932.0186745422
 10
617.8913598995
 20
-927.7197258904
 10
613.332392486
 20
-923.3133623326
 10
609.0785330961
 20
-918.8064638823
 10
605.1364236263
 20
-914.2060675265
 10
601.5122192125
 20
-909.519356238
 10
598.2115786198
 20
-904.7536477601
 10
595.2396554066
 20
-899.9163831809
 10
592.6010898783
 20
-895.0151153149
 10
590.3000018416
 20
-890.0574969099
 10
588.3399841724
 20
-885.0512686986
 10
586.7240972056
 20
-880.004247312
 10
585.454863957
 20
-874.9243130751
 10
584.5342661835
 20
-869.819397702
 10
583.9637412892
 20
-864.6974719121
 10
583.7441800812
 20
-859.5665329845
 10
583.8759253781
 20
-854.4345922713
 10
584.3587714754
 20
-849.3096626887
 10
585.191964466
 20
-844.1997462059
 10
586.3742034182
 20
-839.1128213508
 10
587.9036424061
 20
-834.0568307529
 10
589.7778933923
 20
-829.0396687412
 10
591.9940299563
 20
-824.0691690186
 10
594.548591864
 20
-819.1530924304
 10
597.4375904703
 20
-814.2991148467
 10
600.6565149467
 20
-809.5148151772
 10
604.2003393247
 20
-804.807663538
 10
608.0635303434
 20
-800.1850095875
 10
612.2400560884
 20
-795.6540710512
 10
616.7233954107
 20
-791.2219224516
 10
621.506548108
 20
-786.8954840629
 10
626.5820458553
 20
-782.6815111048
 10
631.9419638653
 20
-778.5865831959
 10
637.5779332623
 20
-774.6170940801
 10
643.4811541491
 20
-770.7792416435
 10
649.6424093471
 20
-767.079018237
  0
LWPOLYLINE
  5
B1
330
1F
100
AcDbEntity
  8
0
  6
Continuous
 62
     7
370
    25
100
AcDbPolyline
 90
      145
 70
   128
 43
0.0
 10
678.5630766976
 20
-783.7745641237
 10
673.0086774073
 20
-787.1241035763
 10
667.7126531358
 20
-790.6103199844
 10
662.6850851664
 20
-794.226577137
 10
657.9355437604
 20
-797.965991283
 10
653.4730699399
 20
-801.8214442352
 10
649.3061582773
 20
-805.7855969195
 10
645.4427407259
 20
-809.8509033462
 10
641.8901715206
 20
-814.0096249734
 10
638.6552131787
 20
-818.253845438
 10
635.7440236274
 20
-822.5754856253
 10
633.1621444813
 20
-826.9663190475
 10
630.9144904942
 20
-831.4179875036
 10
629.0053402033
 20
-835.9220169896
 10
627.4383277845
 20
-840.4698338295
 10
626.2164361351
 20
-845.0527809955
 10
625.3419911954
 20
-849.6621345871
 10
624.8166575208
 20
-854.2891204378
 10
624.641435114
 20
-858.924930817
 10
624.8166575208
 20
-863.5607411962
 10
625.3419911954
 20
-868.1877270469
 10
626.2164361351
 20
-872.7970806385
 10
627.4383277845
 20
-877.3800278045
 10
629.0053402033
 20
-881.9278446444
 10
630.9144904942
 20
-886.4318741305
 10
633.1621444813
 20
-890.8835425865
 10
635.7440236274
 20
-895.2743760087
 10
638.6552131787
 20
-899.596016196
 10
641.8901715206
 20
-903.8402366606
 10
645.4427407259
 20
-907.9989582878
 10
649.3061582773
 20
-912.0642647145
 10
653.4730699399
 20
-916.0284173989
 10
657.9355437604
 20
-919.883870351
 10
662.6850851664
 20
-923.623284497
 10
667.7126531358
 20
-927.2395416496
 10
673.0086774073
 20
-930.7257580577
 10
678.5630766976
 20
-934.0752975103
 10
684.365277892
 20
-937.2817839686
 10
690.4042361708
 20
-940.3391137034
 10
696.6684560335
 20
-943.2414669138
 10
703.1460131818
 20
-945.9833188056
 10
709.8245772174
 20
-948.5594501077
 10
716.691435114
 20
-950.9649570078
 10
723.7335154175
 20
-953.1952604869
 10
730.9374131276
 20
-955.2461150355
 10
738.2894152156
 20
-957.1136167353
 10
745.7755267278
 20
-958.7942106909
 10
753.3814974253
 20
-960.284697796
 10
761.0928489107
 20
-961.5822408237
 10
768.894902188
 20
-962.6843698272
 10
776.7728056056
 20
-963.5889868413
 10
784.7115631263
 20
-964.294369876
 10
792.6960628742
 20
-964.7991761946
 10
800.7111059001
 20
-965.1024448696
 10
808.741435114
 20
-965.203598612
 10
816.771764328
 20
-965.1024448696
 10
824.7868073539
 20
-964.7991761946
 10
832.7713071018
 20
-964.294369876
 10
840.7100646225
 20
-963.5889868413
 10
848.58796804
 20
-962.6843698272
 10
856.3900213174
 20
-961.5822408237
 10
864.1013728028
 20
-960.284697796
 10
871.7073435003
 20
-958.7942106909
 10
879.1934550125
 20
-957.1136167353
 10
886.5454571005
 20
-955.2461150355
 10
893.7493548106
 20
-953.1952604869
 10
900.791435114
 20
-950.9649570078
 10
907.6582930107
 20
-948.5594501077
 10
914.3368570463
 20
-945.9833188056
 10
920.8144141945
 20
-943.2414669138
 10
927.0786340573
 20
-940.3391137034
 10
933.1175923361
 20
-937.2817839686
 10
938.9197935305
 20
-934.0752975103
 10
944.4741928208
 20
-930.7257580577
 10
949.7702170922
 20
-927.2395416496
 10
954.7977850617
 20
-923.623284497
 10
959.5473264676
 20
-919.883870351
 10
964.0098002882
 20
-916.0284173989
 10
968.1767119508
 20
-912.0642647145
 10
972.0401295022
 20
-907.9989582878
 10
975.5926987075
 20
-903.8402366606
 10
978.8276570494
 20
-899.596016196
 10
981.7388466007
 20
-895.2743760087
 10
984.3207257468
 20
-890.8835425865
 10
986.5683797339
 20
-886.4318741305
 10
988.4775300248
 20
-881.9278446444
 10
990.0445424436
 20
-877.3800278045
 10
991.266434093
 20
-872.7970806385
 10
992.1408790327
 20
-868.1877270469
 10
992.6662127073
 20
-863.5607411962
 10
992.841435114
 20
-858.924930817
 10
992.6662127073
 20
-854.2891204378
 10
992.1408790327
 20
-849.6621345871
 10
991.266434093
 20
-845.0527809955
 10
990.0445424436
 20
-840.4698338295
 10
988.4775300248
 20
-835.9220169896
 10
986.5683797339
 20
-831.4179875036
 10
984.3207257468
 20
-826.9663190475
 10
981.7388466007
 20
-822.5754856253
 10
978.8276570494
 20
-818.253845438
 10
975.5926987075
 20
-814.0096249734
 10
972.0401295022
 20
-809.8509033462
 10
968.1767119508
 20
-805.7855969195
 10
964.0098002882
 20
-801.8214442352
 10
959.5473264676
 20
-797.965991283
 10
954.7977850617
 20
-794.226577137
 10
949.7702170922
 20
-790.6103199844
 10
944.4741928208
 20
-787.1241035763
 10
938.9197935305
 20
-783.7745641237
 10
933.1175923361
 20
-780.5680776654
 10
927.0786340573
 20
-777.5107479306
 10
920.8144141945
 20
-774.6083947202
 10
914.3368570463
 20
-771.8665428285
 10
907.6582930107
 20
-769.2904115264
 10
900.791435114
 20
-766.8849046262
 10
893.7493548106
 20
-764.6546011471
 10
886.5454571005
 20
-762.6037465986
 10
879.1934550125
 20
-760.7362448987
 10
871.7073435003
 20
-759.0556509431
 10
864.1013728028
 20
-757.565163838
 10
856.3900213174
 20
-756.2676208103
 10
848.58796804
 20
-755.1654918068
 10
840.7100646225
 20
-754.2608747927
 10
832.7713071018
 20
-753.5554917581
 10
824.7868073539
 20
-753.0506854394
 10
816.771764328
 20
-752.7474167644
 10
808.741435114
 20
-752.6462630221
 10
800.7111059001
 20
-752.7474167644
 10
792.6960628742
 20
-753.0506854394
 10
784.7115631263
 20
-753.5554917581
 10
776.7728056056
 20
-754.2608747927
 10
768.894902188
 20
-755.1654918068
 10
761.0928489107
 20
-756.2676208103
 10
753.3814974253
 20
-757.565163838
 10
745.7755267278
 20
-759.0556509431
 10
738.2894152156
 20
-760.7362448987
 10
730.9374131276
 20
-762.6037465986
 10
723.7335154175
 20
-764.6546011471
 10
716.691435114
 20
-766.8849046262
 10
709.8245772174
 20
-769.2904115264
 10
703.1460131818
 20
-771.8665428285
 10
696.6684560335
 20
-774.6083947202
 10
690.4042361707
 20
-777.5107479306
 10
684.365277892
 20
-780.5680776654
 10
678.5630766976
 20
-783.7745641237
  0
ELLIPSE
  5
B2
330
1F
100
AcDbEntity
  8
0
  6
Continuous
 62
     7
370
    25
100
AcDbEllipse
 10
808.741435114
 20
-614.3160884516
 30
0.0
 11
224.3380207701105
 21
-41.99522856552516
 31
0.0
210
0.0
220
0.0
230
1.0
 40
0.4106849769
 41
0.0767277489784134
 42
3.21832040256824
  0
LWPOLYLINE
  5
B3
330
1F
100
AcDbEntity
  8
0
  6
Continuous
 62
     7
370
    25
100
AcDbPolyline
 90
       65
 70
   128
 43
0.0
 10
755.5554076057
 20
-249.490431948
 10
761.12298477
 20
-250.0488545008
 10
766.930283066
 20
-250.7498116329
 10
772.9682350867
 20
-251.5922088829
 10
779.2274132869
 20
-252.5747309473
 10
785.6980447029
 20
-253.6958437348
 10
792.3700262117
 20
-254.9537967607
 10
799.2329403062
 20
-256.3466258807
 10
806.2760713608
 20
-257.8721563574
 10
813.4884223624
 20
-259.5280062562
 10
820.8587320811
 20
-261.311590164
 10
828.3754926531
 20
-263.2201232262
 10
836.0269675491
 20
-265.2506254951
 10
843.8012098994
 20
-267.3999265822
 10
851.6860811473
 20
-269.6646706093
 10
859.6692700025
 20
-272.0413214472
 10
867.7383116631
 20
-274.5261682378
 10
875.8806072785
 20
-277.1153311878
 10
884.0834436206
 20
-279.8047676267
 10
892.3340129342
 20
-282.5902783187
 10
900.6194329347
 20
-285.4675140195
 10
908.9267669223
 20
-288.4319822671
 10
917.2430439812
 20
-291.4790543963
 10
925.555279232
 20
-294.6039727656
 10
933.8504941059
 20
-297.8018581859
 10
942.1157366097
 20
-301.0677175388
 10
950.3381015483
 20
-304.3964515725
 10
958.504750675
 20
-307.7828628641
 10
966.6029327366
 20
-311.2216639342
 10
974.6200033831
 20
-314.7074855033
 10
982.5434449103
 20
-318.2348848747
 10
990.3608858049
 20
-321.7983544331
 10
998.060120061
 20
-325.3923302437
 10
1005.6291262381
 20
-329.0112007399
 10
1013.0560862317
 20
-332.649315485
 10
1020.3294037254
 20
-336.3009939948
 10
1027.4377222972
 20
-339.9605346068
 10
1034.3699431515
 20
-343.6222233826
 10
1041.1152424484
 20
-347.2803430299
 10
1047.6630882037
 20
-350.9291818291
 10
1054.0032567336
 20
-354.5630425517
 10
1060.1258486175
 20
-358.1762513554
 10
1066.0213041549
 20
-361.7631666435
 10
1071.680418292
 20
-365.3181878738
 10
1077.0943549938
 20
-368.8357643025
 10
1082.2546610407
 20
-372.3104036516
 10
1087.1532792275
 20
-375.7366806842
 10
1091.7825609433
 20
-379.1092456755
 10
1096.1352781142
 20
-382.4228327656
 10
1100.2046344892
 20
-385.6722681815
 10
1103.9842762513
 20
-388.8524783156
 10
1107.4683019385
 20
-391.9584976473
 10
1110.6512716583
 20
-394.9854764962
 10
1113.5282155814
 20
-397.928688594
 10
1116.0946417013
 20
-400.7835384644
 10
1118.3465428483
 20
-403.5455685984
 10
1120.2804029461
 20
-406.2104664136
 10
1121.8932025016
 20
-408.7740709885
 10
1123.1824233199
 20
-411.2323795589
 10
1124.1460524356
 20
-413.5815537678
 10
1124.7825852563
 20
-415.8179256585
 10
1125.0910279115
 20
-417.9380034017
 10
1125.0708988047
 20
-419.9384767477
 10
1124.7222293651
 20
-421.8162221949
 10
1124.4192216525
 20
-422.7226676906
  0
LWPOLYLINE
  5
B4
330
1F
100
AcDbEntity
  8
0
  6
Continuous
 62
     7
370
    25
100
AcDbPolyline
 90
       17
 70
   128
 43
0.0
 10
704.8896450929
 20
-259.9500213654
 10
705.7243237015
 20
-258.2763234504
 10
706.8908423493
 20
-256.7177943402
 10
708.3817591815
 20
-255.2913870514
 10
710.1947463084
 20
-253.9993287495
 10
712.3269729658
 20
-252.8436368302
 10
714.7751099349
 20
-251.8261157693
 10
717.5353347405
 20
-250.9483543051
 10
720.6033376191
 20
-250.2117229579
 10
723.9743282486
 20
-249.6173718901
 10
727.643043227
 20
-249.1662291105
 10
731.6037542916
 20
-248.8589990248
 10
735.8502772622
 20
-248.6961613364
 10
740.3759816972
 20
-248.6779702969
 10
745.1738012463
 20
-248.8044543097
 10
750.236244684
 20
-249.0754158848
 10
755.5554076057
 20
-249.490431948
  0
LINE
  5
B5
330
1F
100
AcDbEntity
  8
0
  6
Continuous
 62
     7
370
    25
100
AcDbLine
 10
138.8652367178
 20
526.0767365098
 30
0.0
 11
-41.0626459997
 21
214.4325019448
 31
0.0
  0
LINE
  5
B6
330
1F
100
AcDbEntity
  8
0
  6
Continuous
 62
     7
370
    25
100
AcDbLine
 10
408.9373540003
 20
93.8553653508
 30
0.0
 11
528.5766684208
 21
301.0767365098
 31
0.0
  0
LINE
  5
B7
330
1F
100
AcDbEntity
  8
0
  6
Continuous
 62
     7
370
    25
100
AcDbLine
 10
-41.0626459997
 20
214.4325019448
 30
0.0
 11
-41.0626459997
 21
-145.4232634902
 31
0.0
  0
LINE
  5
B8
330
1F
100
AcDbEntity
  8
0
  6
Continuous
 62
     7
370
    25
100
AcDbLine
 10
408.9373540003
 20
-145.4232634902
 30
0.0
 11
408.9373540003
 21
93.8553653508
 31
0.0
  0
LINE
  5
B9
330
1F
100
AcDbEntity
  8
0
  6
Continuous
 62
     7
370
    25
100
AcDbLine
 10
333.7209525693
 20
413.5767365098
 30
0.0
 11
528.5766684208
 21
301.0767365098
 31
0.0
  0
LINE
  5
BA
330
1F
100
AcDbEntity
  8
0
  6
Continuous
 62
     7
370
    25
100
AcDbLine
 10
138.8652367178
 20
526.0767365098
 30
0.0
 11
333.7209525693
 21
413.5767365098
 31
0.0
  0
LINE
  5
BB
330
1F
100
AcDbEntity
  8
0
  6
Continuous
 62
     7
370
    25
100
AcDbLine
 10
408.9373540003
 20
93.8553653508
 30
0.0
 11
-41.0626459997
 21
214.4325019448
 31
0.0
  0
LINE
  5
BC
330
1F
100
AcDbEntity
  8
0
  6
Continuous
 62
     7
370
    25
100
AcDbLine
 10
183.9373540003
 20
-145.4232634902
 30
0.0
 11
408.9373540003
 21
-145.4232634902
 31
0.0
  0
LINE
  5
BD
330
1F
100
AcDbEntity
  8
0
  6
Continuous
 62
     7
370
    25
100
AcDbLine
 10
-41.0626459997
 20
-145.4232634902
 30
0.0
 11
183.9373540003
 21
-145.4232634902
 31
0.0
  0
ENDSEC
  0
SECTION
  2
OBJECTS
  0
DICTIONARY
  5
C
330
0
100
AcDbDictionary
281
     1
  3
ACAD_GROUP
350
D
  3
ACAD_LAYOUT
350
1A
  3
ACAD_MLINESTYLE
350
17
  3
ACAD_PLOTSETTINGS
350
19
  3
ACAD_PLOTSTYLENAME
350
E
  3
ACAD_SCALELIST
350
47
  3
DWGPROPS
350
BE
  0
DICTIONARY
  5
D
102
{ACAD_REACTORS
330
C
102
}
330
C
100
AcDbDictionary
281
     1
  0
DICTIONARY
  5
1A
102
{ACAD_REACTORS
330
C
102
}
330
C
100
AcDbDictionary
281
     1
  3
Layout1
350
1E
  3
Layout2
350
26
  3
Model
350
22
  0
DICTIONARY
  5
17
102
{ACAD_REACTORS
330
C
102
}
330
C
100
AcDbDictionary
281
     1
  3
Standard
350
18
  0
DICTIONARY
  5
19
102
{ACAD_REACTORS
330
C
102
}
330
C
100
AcDbDictionary
281
     1
  0
ACDBDICTIONARYWDFLT
  5
E
102
{ACAD_REACTORS
330
C
102
}
330
C
100
AcDbDictionary
281
     1
  3
Normal
350
F
100
AcDbDictionaryWithDefault
340
F
  0
DICTIONARY
  5
47
102
{ACAD_REACTORS
330
C
102
}
330
C
100
AcDbDictionary
281
     1
  3
A0
350
48
  3
A1
350
49
  3
A2
350
4A
  3
A3
350
4B
  3
A4
350
4C
  3
A5
350
4D
  3
A6
350
4E
  3
A7
350
4F
  3
A8
350
50
  3
A9
350
51
  3
B0
350
52
  3
B1
350
53
  3
B2
350
54
  3
B3
350
55
  3
B4
350
56
  3
B5
350
57
  3
B6
350
58
  3
B7
350
59
  3
B8
350
5A
  3
B9
350
5B
  3
C0
350
5C
  3
C1
350
5D
  3
C2
350
5E
  3
C3
350
5F
  3
C4
350
60
  3
C5
350
61
  3
C6
350
62
  3
C7
350
63
  3
C8
350
64
  3
C9
350
65
  3
D0
350
66
  3
D1
350
67
  3
D2
350
68
  0
XRECORD
  5
BE
102
{ACAD_REACTORS
330
C
102
}
330
C
100
AcDbXrecord
280
     1
  1
DWGPROPS COOKIE
  2

  3

  4

  6

  7

  8
b.kav
  9

300
=
301
=
302
=
303
=
304
=
305
=
306
=
307
=
308
=
309
=
 40
0.0
 41
2460682.394644896
 42
2460682.394645081
  1

 90
        0
  0
LAYOUT
  5
1E
102
{ACAD_REACTORS
330
1A
102
}
330
1A
100
AcDbPlotSettings
  1

  2
none_device
  4

  6

 40
0.0
 41
0.0
 42
0.0
 43
0.0
 44
0.0
 45
0.0
 46
0.0
 47
0.0
 48
0.0
 49
0.0
140
0.0
141
0.0
142
1.0
143
1.0
 70
   688
 72
     1
 73
     0
 74
     5
  7

 75
    16
147
1.0
148
0.0
149
0.0
100
AcDbLayout
  1
Layout1
 70
     1
 71
     1
 10
0.0
 20
0.0
 11
420.0
 21
297.0
 12
0.0
 22
0.0
 32
0.0
 14
1.0000000000E+20
 24
1.0000000000E+20
 34
1.0000000000E+20
 15
-1.0000000000E+20
 25
-1.0000000000E+20
 35
-1.0000000000E+20
146
0.0
 13
0.0
 23
0.0
 33
0.0
 16
1.0
 26
0.0
 36
0.0
 17
0.0
 27
1.0
 37
0.0
 76
     0
330
1B
  0
LAYOUT
  5
26
102
{ACAD_REACTORS
330
1A
102
}
330
1A
100
AcDbPlotSettings
  1

  2
none_device
  4

  6

 40
0.0
 41
0.0
 42
0.0
 43
0.0
 44
0.0
 45
0.0
 46
0.0
 47
0.0
 48
0.0
 49
0.0
140
0.0
141
0.0
142
1.0
143
1.0
 70
   688
 72
     1
 73
     0
 74
     5
  7

 75
    16
147
1.0
148
0.0
149
0.0
100
AcDbLayout
  1
Layout2
 70
     1
 71
     2
 10
0.0
 20
0.0
 11
0.0
 21
0.0
 12
0.0
 22
0.0
 32
0.0
 14
0.0
 24
0.0
 34
0.0
 15
0.0
 25
0.0
 35
0.0
146
0.0
 13
0.0
 23
0.0
 33
0.0
 16
1.0
 26
0.0
 36
0.0
 17
0.0
 27
1.0
 37
0.0
 76
     0
330
23
  0
LAYOUT
  5
22
102
{ACAD_REACTORS
330
1A
102
}
330
1A
100
AcDbPlotSettings
  1

  2
none_device
  4
Letter_(8.50_x_11.00_Inches)
  6

 40
6.35
 41
6.35
 42
6.35000508
 43
6.35000508
 44
215.9
 45
279.4
 46
0.0
 47
0.0
 48
0.0
 49
0.0
140
0.0
141
0.0
142
1.0
143
1.0
 70
  1712
 72
     1
 73
     0
 74
     0
  7

 75
     0
147
1.0
148
0.0
149
0.0
100
AcDbLayout
  1
Model
 70
     1
 71
     0
 10
0.0
 20
0.0
 11
279.4
 21
215.9
 12
0.0
 22
0.0
 32
0.0
 14
0.0
 24
0.0
 34
0.0
 15
279.4
 25
215.9
 35
0.0
146
0.0
 13
0.0
 23
0.0
 33
0.0
 16
1.0
 26
0.0
 36
0.0
 17
0.0
 27
1.0
 37
0.0
 76
     0
330
1F
331
29
  0
MLINESTYLE
  5
18
102
{ACAD_REACTORS
330
17
102
}
330
17
100
AcDbMlineStyle
  2
Standard
 70
     0
  3

 62
   256
 51
90.0
 52
90.0
 71
     2
 49
0.5
 62
   256
  6
BYLAYER
 49
-0.5
 62
   256
  6
BYLAYER
  0
ACDBPLACEHOLDER
  5
F
102
{ACAD_REACTORS
330
E
102
}
330
E
  0
SCALE
  5
48
102
{ACAD_REACTORS
330
47
102
}
330
47
100
AcDbScale
 70
     0
300
1:1
140
1.0
141
1.0
290
     1
  0
SCALE
  5
49
102
{ACAD_REACTORS
330
47
102
}
330
47
100
AcDbScale
 70
     0
300
1:2
140
1.0
141
2.0
290
     0
  0
SCALE
  5
4A
102
{ACAD_REACTORS
330
47
102
}
330
47
100
AcDbScale
 70
     0
300
1:4
140
1.0
141
4.0
290
     0
  0
SCALE
  5
4B
102
{ACAD_REACTORS
330
47
102
}
330
47
100
AcDbScale
 70
     0
300
1:5
140
1.0
141
5.0
290
     0
  0
SCALE
  5
4C
102
{ACAD_REACTORS
330
47
102
}
330
47
100
AcDbScale
 70
     0
300
1:8
140
1.0
141
8.0
290
     0
  0
SCALE
  5
4D
102
{ACAD_REACTORS
330
47
102
}
330
47
100
AcDbScale
 70
     0
300
1:10
140
1.0
141
10.0
290
     0
  0
SCALE
  5
4E
102
{ACAD_REACTORS
330
47
102
}
330
47
100
AcDbScale
 70
     0
300
1:16
140
1.0
141
16.0
290
     0
  0
SCALE
  5
4F
102
{ACAD_REACTORS
330
47
102
}
330
47
100
AcDbScale
 70
     0
300
1:20
140
1.0
141
20.0
290
     0
  0
SCALE
  5
50
102
{ACAD_REACTORS
330
47
102
}
330
47
100
AcDbScale
 70
     0
300
1:30
140
1.0
141
30.0
290
     0
  0
SCALE
  5
51
102
{ACAD_REACTORS
330
47
102
}
330
47
100
AcDbScale
 70
     0
300
1:40
140
1.0
141
40.0
290
     0
  0
SCALE
  5
52
102
{ACAD_REACTORS
330
47
102
}
330
47
100
AcDbScale
 70
     0
300
1:50
140
1.0
141
50.0
290
     0
  0
SCALE
  5
53
102
{ACAD_REACTORS
330
47
102
}
330
47
100
AcDbScale
 70
     0
300
1:100
140
1.0
141
100.0
290
     0
  0
SCALE
  5
54
102
{ACAD_REACTORS
330
47
102
}
330
47
100
AcDbScale
 70
     0
300
2:1
140
2.0
141
1.0
290
     0
  0
SCALE
  5
55
102
{ACAD_REACTORS
330
47
102
}
330
47
100
AcDbScale
 70
     0
300
4:1
140
4.0
141
1.0
290
     0
  0
SCALE
  5
56
102
{ACAD_REACTORS
330
47
102
}
330
47
100
AcDbScale
 70
     0
300
8:1
140
8.0
141
1.0
290
     0
  0
SCALE
  5
57
102
{ACAD_REACTORS
330
47
102
}
330
47
100
AcDbScale
 70
     0
300
10:1
140
10.0
141
1.0
290
     0
  0
SCALE
  5
58
102
{ACAD_REACTORS
330
47
102
}
330
47
100
AcDbScale
 70
     0
300
100:1
140
100.0
141
1.0
290
     0
  0
SCALE
  5
59
102
{ACAD_REACTORS
330
47
102
}
330
47
100
AcDbScale
 70
     0
300
1/128" = 1'-0"
140
0.0078125
141
12.0
290
     0
  0
SCALE
  5
5A
102
{ACAD_REACTORS
330
47
102
}
330
47
100
AcDbScale
 70
     0
300
1/64" = 1'-0"
140
0.015625
141
12.0
290
     0
  0
SCALE
  5
5B
102
{ACAD_REACTORS
330
47
102
}
330
47
100
AcDbScale
 70
     0
300
1/32" = 1'-0"
140
0.03125
141
12.0
290
     0
  0
SCALE
  5
5C
102
{ACAD_REACTORS
330
47
102
}
330
47
100
AcDbScale
 70
     0
300
1/16" = 1'-0"
140
0.0625
141
12.0
290
     0
  0
SCALE
  5
5D
102
{ACAD_REACTORS
330
47
102
}
330
47
100
AcDbScale
 70
     0
300
3/32" = 1'-0"
140
0.09375
141
12.0
290
     0
  0
SCALE
  5
5E
102
{ACAD_REACTORS
330
47
102
}
330
47
100
AcDbScale
 70
     0
300
1/8" = 1'-0"
140
0.125
141
12.0
290
     0
  0
SCALE
  5
5F
102
{ACAD_REACTORS
330
47
102
}
330
47
100
AcDbScale
 70
     0
300
3/16" = 1'-0"
140
0.1875
141
12.0
290
     0
  0
SCALE
  5
60
102
{ACAD_REACTORS
330
47
102
}
330
47
100
AcDbScale
 70
     0
300
1/4" = 1'-0"
140
0.25
141
12.0
290
     0
  0
SCALE
  5
61
102
{ACAD_REACTORS
330
47
102
}
330
47
100
AcDbScale
 70
     0
300
3/8" = 1'-0"
140
0.375
141
12.0
290
     0
  0
SCALE
  5
62
102
{ACAD_REACTORS
330
47
102
}
330
47
100
AcDbScale
 70
     0
300
1/2" = 1'-0"
140
0.5
141
12.0
290
     0
  0
SCALE
  5
63
102
{ACAD_REACTORS
330
47
102
}
330
47
100
AcDbScale
 70
     0
300
3/4" = 1'-0"
140
0.75
141
12.0
290
     0
  0
SCALE
  5
64
102
{ACAD_REACTORS
330
47
102
}
330
47
100
AcDbScale
 70
     0
300
1" = 1'-0"
140
1.0
141
12.0
290
     0
  0
SCALE
  5
65
102
{ACAD_REACTORS
330
47
102
}
330
47
100
AcDbScale
 70
     0
300
1-1/2" = 1'-0"
140
1.5
141
12.0
290
     0
  0
SCALE
  5
66
102
{ACAD_REACTORS
330
47
102
}
330
47
100
AcDbScale
 70
     0
300
3" = 1'-0"
140
3.0
141
12.0
290
     0
  0
SCALE
  5
67
102
{ACAD_REACTORS
330
47
102
}
330
47
100
AcDbScale
 70
     0
300
6" = 1'-0"
140
6.0
141
12.0
290
     0
  0
SCALE
  5
68
102
{ACAD_REACTORS
330
47
102
}
330
47
100
AcDbScale
 70
     0
300
1'-0" = 1'-0"
140
12.0
141
12.0
290
     0
  0
ENDSEC
  0
EOF
